Guitar tablature for Papsopwinterwaternat by Kurt Darren (tabbed by kunuk)
#----------------------------------PLEASE NOTE---------------------------------#
#This file is the author's own work and represents their interpretation of the #
#song. You may only use this file for private study, scholarship, or research. #
#------------------------------------------------------------------------------##

Papsopwinterwaternat2 - Kurt Darren
Album:  Uit Die Diepte Van My Hart



Reworked to include the lyrics and a few tweaks, this song has such a
strong guitar presence for a Kurt Darren piece. There is a lot of
strumming, with a few options for plucking. It is a great song for a
beginner looking for a bit more of a challenge.

Here are the chords used in the song for quick reference:
       Am      C       D       Em      G               
e:-----0-------0-------2-------0-------3-------
B:-----1-------1-------3-------0-------0-------
G:-----2-------0-------2-------0-------0-------
D:-----2-------2-------0-------2-------0-------
A:-----0-------3---------------2-------2-------
E:-----0-----------------------0-------3-------

Have fun! Please let me know if there any changes/suggestions you have
to make the tab better,
Your Friendly Neighbourhood Kunuk – kunuk@rocketmail.com

======================================================================

INTRO:
    G               Em               Am              C         D
e:|-3-3-3---------|-0-0-0---------|-0-0-0---------|-0---------2------|
B:|-0-0-0---------|-0-0-0---------|-1-1-1---------|-1-1-1-1-3-3-3-3--|
G:|-0-0-0-----0---|-0-0-0-----0---|-2-2-2-----0---|-0---------2----2-|
D:|-0-0-0-0-2---2-|-2-2-2-0-2---2-|-2-2-2-0-2---2-|-2---------0------|
A:|-2-2-2---------|-2-2-2---------|-0-0-0---------|-3----------------|
E:|-3-3-3---------|-0-0-0---------|-0-0-0---------|------------------|

    G               Em               Am              C         D
e:|-3-3-3---------|-0-0-0---------|-0-0-0---------|-0---------2------|
B:|-0-0-0---------|-0-0-0---------|-1-1-1---------|-1-1-1-1-3-3-3-3-3|
G:|-0-0-0-----0---|-0-0-0-----0---|-2-2-2-----0---|-0---------2------|
D:|-0-0-0-0-2---2-|-2-2-2-0-2---2-|-2-2-2-0-2---2-|-2---------0------|
A:|-2-2-2---------|-2-2-2---------|-0-0-0---------|-3----------------|
E:|-3-3-3---------|-0-0-0---------|-0-0-0---------|------------------|


VERS:
G...     G  D  Em
         Jy ek ons
       Am                    C               Am    D
Al die koue gesprekke en die koffie voor die kaggelvuur
        G            D       Em
Laat my hart soos 'n byekorf gons
       Am                  C                  Am     D
As jou woorde my insluk en toe vou tot in die oggend uur
Am                    C                        Am
Al die vreugde wat jy is, kyk die liefde in my mis
                         C      D
Jy's die rots waaroor ek myself breek.


KOOR:
D       G                Em
Jy's my papsopwinterwaternat
                        Am
Rooikop groenoog meisie wat
                        C  
Lag lag in die reën sal dans
      D                   G
En my laat dink ek het 'n kans
                     Em
Winter koningin prinses
                             Am
Jy dink ek's net een van die res
                               C      
'n Bietjie van jou is net te veel
       D                     G
Ek wil meer as alles met jou deel


VERS:
--There is the option of playing the chords below, or playing the
“harmonic solo” during the second half of this verse

“HARMONIC SOLO”
e:|---------------|---------------|---------------|---------------|
B:|---------------|---------------|---------------|---------------|
G:|-12-11---------|-12-11---------|-12-14-14------|-12-11---------|
D:|-------12------|-------12------|---------------|-------12------|
A:|---------------|---------------|---------------|---------------|
E:|---------------|---------------|---------------|---------------|

   G    D   Em  
Ek dink aan jou
        Am                   C                   Am       D
Met jou oe so blou is jy die mooiste vrou in die hele Wes-Kaap
G  D      Em  
En wonder nou
      Am                  C             Am     D
Of 'n engel so onskuldig lyk soos jy as jy slaap
Am                   C                    Am
In 'n kas pak ek die hoop dat jou hart my raak sal loop
                         C      D
Jy's die rots waaroor ek myself breek


KOOR:
D       G                Em
Jy's my papsopwinterwaternat
                        Am
Rooikop groenoog meisie wat
                        C  
Lag lag in die reën sal dans
      D                   G
En my laat dink ek het 'n kans
                     Em
Winter koningin prinses
                             Am
Jy dink ek's net een van die res
                               C      
'n Bietjie van jou is net te veel
       D                     G
Ek wil meer as alles met jou deel


BRUG:
G              Em
Meer as alles, meer as alles, meer as alles
Am             C                 D
Wil ek met jou deel, ooo ooo ooo ooo ooo ooo ooo
G              Em
Meer as alles, meer as alles, meer as alles
Am             C
Wil ek met jou deel
   C                  D      G
'n Bietjie van jou is net te veel


KOOR: (X2)
D       G                Em
Jy's my papsopwinterwaternat
                        Am
Rooikop groenoog meisie wat
                        C  
Lag lag in die reën sal dans
      D                   G
En my laat dink ek het 'n kans
                     Em
Winter koningin prinses
                             Am
Jy dink ek's net een van die res
                               C      
'n Bietjie van jou is net te veel
       D                     G
Ek wil meer as alles met jou deel


OUTRO:
D       G                Em
Jy's my papsopwinterwaternat
                        Am
Rooikop groenoog meisie wat
                        C  
My kon breek met een glimlag
       D                 G
Wag ek maar vir 'n somersdag

======================================================================
Here is an English translation for all of those people out there like
myself, who dig the music, but are new to the language:
======================================================================

You me us
All the cold conversations and coffee by the artificial fireplace
Let my heart beat like a buzzing bee hive
If you swallow my words and then fold into the morning hours
And you see all of the joy that you have missed
You're the rock on which I broke myself

CHORUS:
You're my Papsopwinterwaternat
Red haired, green eyed girl
Laughing in the rain we’ll dance
And remind me that I have a chance
Winter queen princess
You think I'm just all that remains
A little time with you is so much
I want more than anything to be with you

Thinking of you
With your eyes so blue, you're the most beautiful woman in the entire
West Cape
Wondering now if you are an angel, you look so innocent when you sleep
In a chest, I hope your heart runs to mine
You're the rock on which I broke myself

CHORUS:
You're my Papsopwinterwaternat
Red haired, green eyed girl
Laughing in the rain we’ll dance
And remind me that I have a chance
Winter queen princess
You think I'm just all that remains
A little time with you is so much
I want more than anything to be with you

BRIDGE:
More than anything, more than anything, more than anything
I want to be with you, ooo ooo ooo ooo ooo ooo ooo
More than anything, more than anything, more than anything
I want to be with you
A little time with you is so much

======================================================================

---------------------------
This file passed through:
       Absolute Tabs
   http://www.tabs.co.za
---------------------------