Guitar tablature for Girls rule the world by Tweak
#----------------------------------PLEASE NOTE---------------------------------#
#This file is the author's own work and represents their interpretation of the #
#song. You may only use this file for private study, scholarship, or research. #
#------------------------------------------------------------------------------##

Artist:    Tweak
Song name: Girls Rule The World
Album:     Dirty Sanchez and the Misfit Kids

Tabbed by Riaan Niezen - thorn150387@hotmail.com

x  - ghost note
\  - slide
pm - palm mute
X  - times played


intro part1 - play this part in acoustic

E-------------------------------------
B-------------------------------------
G-------------------9-9---------------  X2
D---9-9---------9-9-9-9---------4-----
A---9-9---------9-9-7-7---4-5-6-------
E---7-7---x-x-x-7-7-------------------



intro part2 - this and the rest of the song is distorted

E-------------------------------------------------
B-------------------------------------------------
G-------------------------------------------------  X2
D---8-9-9-9--9-8-9-9-4--4-8-9-9-9--9-8-9-9-9--9---
A---8-9-9-9--9-8-9-9-4--4-8-9-9-9--9-8-9-9-9--9---
E---6-7-7-7--7-6-7-7-2--2-6-7-7-7--7-6-7-7-7--7---



Verse1 - follows instantly after the intro

E-----------------------------------|--------------------------------
B-----------------------------------|--------------------------------
G-------------------9-9-------------|-------------------9-9---11-----
D---9-9-----9-9-----9-9---------4---|---9-9-----9-9-----9-9---11-----
A---9-9-----9-9---x-7-7---4-5-6-----|---9-9-----9-9---x-7-7---9------
E---7-7---x-7-7---------------------|---7-7---x-7-7------------------

E-------------------------------------
B-------------------------------------
G-------------------9-9---------------  X2
D---9-9-----9-9-----9-9---------4-----
A---9-9-----9-9---x-7-7---4-5-6-------
E---7-7---x-7-7-----------------------



pre chorus

E------------------------------------|---------------------------------
B------------------------------------|---------------------------------
G--------------9--9------11--11------|--------------9--9------11-------
D---9--9-------9--9-X7---11--11-X7---|---9--9-------9--9-X7---11-------
A---9--9-X15---7--7------9---9-------|---9--9-X15---7--7------9--------
E---7--7-----------------------------|---7--7--------------------------
       pm         pm         pm             pm         pm



chorus

E------------------------------
B------------------------------
G----------9------11-11--9-9---  X2
D---9------9-X4---11-11--9-9---
A---9-X8---7------9--9---7-7---
E---7--------------------------



post chorus

E----------------------------------------------|-----------------------------------------------
B----------------------------------------------|-----------------------------------------------
G---------------------------9-9-----5-6-8-11---|---------------------------9-9---6--7--8--11---
D---9-9-------9-9-9-------9-9-9-----5-6-8-11---|---9-9-------9-9-9-------9-9-9---6--7--8--11---
A---9-9-------9-9-9-------9-7-7-x---4-5-6-9----|---9-9-------9-9-9-------9-7-7---4--5--6--9----
E---7-7-x-x---7-7-7-x-x---7--------------------|---7-7-x-x---7-7-7-x-x---7---------------------



verse2

E-------------------------------------
B-------------------------------------
G-------------------9-9---------------  X4
D---9-9-----9-9-----9-9---------4-----
A---9-9-----9-9---x-7-7---4-5-6-------
E---7-7---x-7-7-----------------------



bridge part1 - same as intro part1   X4



bridge part2

E--------------------------|------------------------------
B--------------------------|------------------------------
G-----------9------11------|-----------9------------------
D---9-------9-X8---11-X8---|---9-------9-X8---8\9---8\9---
A---9-X16---7------9-------|---9-X16---7------6\7---6\7---
E---7----------------------|---7--------------6\7---6\7---
      pm      pm     pm        pm      pm


In the last chorus, you play 4 riffs instead of 2, with the second guitar
playing the intro part2 in the last 2 riffs.

Listen to the song for the rythm of the outro. (All you play is the 7-9-9
chord on the E string)


{--------------------------------------------------------------------------------------}

Well, that's about it.  I tried to tab it as close as possible.  If you have
any problems, comments
or corrections on this tab, please e-mail me and let me know.


---------------------------
This file passed through:
       Absolute Tabs
   http://www.tabs.co.za
---------------------------