Bass tablature for Dog's Life by The Cheap Bad Habits (tabbed by Jed)
#----------------------------------PLEASE NOTE---------------------------------#
#This file is the author's own work and represents their interpretation of the #
#song. You may only use this file for private study, scholarship, or research. #
#------------------------------------------------------------------------------##

DOG’S LIFE

INTRO
G--------------------------------------------------------------------------
D-------------------------------------------------------------------------
A-------------------------------------------------------------------------
E--7-7-10-7--7-7-10-7--7-7-7-5-5-7-5----7-7-10-7--7-7-10-7--7-7-7-5-5-7-5-

G-------------------------------------------------------------------------
D-------------------------------------------------------------------------
A--------------------------------------7-----------------------------------
E--7-7-10-7--7-7-10-7--7-7-7------10-7----7-7-10-7--7-7-10-7--7-7-7-5-5-7-5

G---------------------------------------------------------------------------
D---------------------------------------------------------------------------
A---------------------------------------------------------------------------
E--7-7-5-7--XX--7-7-5-5--5-5-5----7-7-5-7--XX -7-5-5--5-5-5-----------------


VERSE
G--------------------------------------------------------------------------
D--------------------------------------------------------------------------
A--------------------------------------------------------------------------
E--7-7-5-7--XX--7-7-5-5--5-5-5----7-7-5-7--XX--7-7-5-5--5-5-5----- X2

G-----------------------------------------------------------------
D-----------------------------------------------------------------
A-----------------------------------------------------------------
E--3-3-3-3--3-3-3--2-2-2-2-2-2-2-2--------------------------------

CHORUS
G-----------------------------------------------------------------
D-----------------------------------------------------------------
A-----------------------------------------------------------------
E--7-7-10-7--7-7-10-7--7-7-7-5-5-7-5----7-7-10-7--7-7-10-7--7-7-7-5-5-7-5

G-----------------------------------------------------------------
D------------------------------------------------------------------
A--------------------------------------------------------------------
E--7-7-10-7--7-7-10-7--7-7-7------10-7----7-7-10-7--7-7-10-7--7-7-7-5-5-7-5----

BRIDGE
G------------------------------------------------------------------
D-------------------------------------------------------------------
A------------------------------------------------------------------
E--0-0-3-0--0-0-3-0--0-0-0-0-0-0-0-0----0-0-3-0--0-0-3-0--0-0-0-0-0-0-0-0--



G--------------------------------------------------------------------------
D--------------------------------------------------------------------------
A--------------------------------------------------------------------------
E--0-0-3-0--0-0-3-0--0-0-0-0-0-0-0-0----0-0-3-0--0-0-3-0--0-0-0-0-0-0-0-0--

END
G--------------------------------------------------------------------------
D--------------------------------------------------------------------------
A--------------------------------------------------------------------------
E--7-7-5-7----7-7-5-7----7-7-5-7----5--7-----------------------------------


SONG STRUCTURE
• INTRO
• VERSE
• CHORUS
• VERSE
• CHORUS
• VERSE (SOLO)
• CHORUS (SOLO)
• BRIDGE
• VERSE
• CHORUS
• END


LYRICS

Dog’s Life
Out on the road and I feel alive
Gotta keep on movin’ if you wanna survive
Scratchin’ and scrapin’ just tryna get by
Runnin’ on empty livin’ on the fly

That’s why they say…
That’s why they say…

It’s a dog’s life - tryna make it pay
It’s a dog’s life - take it day by day
It’s a dog’s life - but we like it this way
It’s a dog’s life - but every dog has its day

You play to win when you got nothin’ to lose
I’m headed downtown gonna sing the blues
Smike machines and flashing lights
Gonna crash and burn on someone’s floor tonight

That’s why they say…
That’s why they say…

It’s a dog’s life - tryna make it pay
It’s a dog’s life - take it day by day
It’s a dog’s life - but we like it this way
It’s a dog’s life - but every dog has its day

Out on the road and I’m feelin’ fine
I seen every town up and down the line
Sun’s beating down on my mirrored shades
Around my neck is a razorblade

That’s why they say…
That’s why they say…

It’s a dog’s life - tryna make it pay
It’s a dog’s life - take it day by day
It’s a dog’s life - but we like it this way
It’s a dog’s life - but every dog has its day

---------------------------
This file passed through:
       Absolute Tabs
   http://www.tabs.co.za
---------------------------