Guitar tablature for Make it your system by Lazarus
#----------------------------------PLEASE NOTE---------------------------------#
#This file is the author's own work and represents their interpretation of the #
#song. You may only use this file for private study, scholarship, or research. #
#------------------------------------------------------------------------------##

Song  : Make it your System
Artist: Lazarus
Album : Parallax View

Tabbed by: hagen rode
hagen00@hotmail.com

This is the first song off Lazarus'debut album Parallax View.
I've tabbed the live version of the song here, which can be played by one guitar.
The album version uses two.


h - hammer on
p - pull off
b - bend string up
r - release bend
<> - harmonic
m - palm muted


VERSE: Clean Guitar
E---------------0---|-0---0--0-|-0---|-0---|
B---------------0---|-0---0--0-|-0---|-0---|
G---------------0---|-0---4--0-|-0---|-6---|
D---------------0---|-0---0--4-|-0---|-7---|
A---------------9---|-5---5--5-|-9---|-7---|
E---------------7---|-3---3--3-|-7---|-5---|
Allow me to wake.......deception....I need to step away

E---------------0--0--0-0-|-0---0--0-|0--0--0-0-|-0---|
B---------------0--0--0-0-|-0---0--0-|0--0--0-0-|-0---|
G---------------0--7--6-6-|-0---4--0-|0--7--6-6-|-6---|
D---------------0--0--0-7-|-0---0--4-|0--0--0-7-|-7---|
A---------------9--9--9-9-|-5---5--5-|9--9--9-9-|-7---|
E---------------7--7--7-7-|-3---3--3-|7--7--7-7-|-5---|
i gotta stop wasting...



CHORUS: Distortion
E-----------X---|-X--|-X---|-X----|
B-----------X---|-X--|-X---|-X----|
G-----------X---|-X--|-X---|-X----|
D-----------9---|-5--|-9---|-7m---|
A-----------9---|-5--|-9---|-7m---|
E-----------7---|-3--|-7---|-5m---|
Ch: Give me asylyum.........

2nd time
E-----------X--X--X--|-X--X-X-|X--X--X--|-X----|
B-----------X--X--X--|-X--X-X-|X--X--X--|-X----|
G-----------X--X--X--|-X--6-7-|X--X--X--|-X----|
D-----------9--11-12-|-5--X-X-|9--11-12-|-7m---|
A-----------9--9--9--|-5--5-5-|9--9--9--|-7m---|
E-----------7--7--7--|-3--3-3-|7--7--7--|-5m---|



POST - CHORUS: Distortion
E-------------------|-----------|-------|-----|
B-------------------|-----------|-------|-----|
G---------7p6-----9-|-----------|-7--6--|-----|
D--------------7----|-----------|-------|-7---| x2
A------9------------|-----------|-------|-----|
E----7--------------|---------7-|-------|-----|




BRIDGE: Distortion    *First Time*
E----X--|-X--|-X--|-X----|-X--|-X----|-X--|-x--|------------|
B----X--|-X--|-X--|-X----|-X--|-X----|-X--|-X--|------------|
G----X--|-X--|-X--|-X----|-X--|-X----|-X--|-X--|------------|
D----5m-|-5m-|-7m-|-6h7m-|-4m-|-3h4m-|-9m-|-7m-|-----7------|
x2
A----5m-|-5m-|-7m-|-7m---|-4m-|-4m---|-9m-|-7m-|---7----7---|
E----3m-|-3m-|-5m-|-5m---|-2m-|-2m---|-7m-|-5m-|-5----------|
Listening to the world...

*Last time*
E-----------|
B----<7>----|
G-------<7>-|
D-----------|
A-----------|
E-----------|



OUTRO: Distortion
E-----X---X|
B-----X---X|
G-----X---X|
D-----9---7| x3
A-----9---7|
E-----7---7|

########################################################################
STRUCTURE

Verse
Chorus
Post-Chorus
Verse
Chorus
Bridge
Chorus
Outro


---------------------------
This file passed through:
       Absolute Tabs
   http://www.tabs.co.za
---------------------------