Guitar tablature for Live This Life by Prime Circle (tabbed by kunuk)
#----------------------------------PLEASE NOTE---------------------------------#
#This file is the author's own work and represents their interpretation of the #
#song. You may only use this file for private study, scholarship, or research. #
#------------------------------------------------------------------------------##

Live This Life - Prime Circle
Album: Live This Life



This is one of those hard driving songs that gets under your skin and
makes you want to learn it. Good thing, considering it is a bit more
challenging than most. Each section of the song has some
‘instructions’ although if you listen as you play along, it shouldn’t
be too difficult.

Here are the chords used in the song for quick reference:
     A5    Am    Asus2 Asus2/C  C      C5     D      D5     G      G5   
e:---------0--------------------0-------------2-------------3---------
B:---------1------0------0------1-------------3-------------0---------
G:---------2------2------2------0------5------2------7------0---------
D:--7------2------2------2------2------5------0------7------0------5--
A:--7------0------0------3------3------3-------------5------2------5--
E:--5------0------------------------------------------------3------3--

Have fun! Please let me know if there any changes/suggestions you have
to make the tab better,
Your Friendly Neighbourhood Kunuk – kunuk@rocketmail.com

======================================================================

VERSE 1:
There is the option to strum along with the chords, or play more
aggressively on the down-stroke with the power-chords
(denoted with a “5”)

Am                    C  
Haven't you wondered, haven't you guessed
D                   G
Haven't you dreamed what's coming round next
Am                    C
Haven't you foreseen, master plan
D           G
All of this hold it in your hand
Am              C             D
Deep inside you light a flame don't you stay down
G
Just get up again
Am                 C
Can't you hear it, it's a sign
D
To live, live, live, live this life


TRANSITION:  (Music only)                  (X2)
e:---------------------------------------------|
B:---------------------------------------------|
G:-7-9-9-9-9---7-9-12-7---7-9-9-9-9------------|
D:------------------------------------9-10-9-7-|
A:---------------------------------------------|
E:---------------------------------------------|


VERSE 2:
Finger-pick section played with chords below.  Basically, just hold
down the first chord and add the third finger for the second chord.

  Asus2                      Asus2/C               
e--------------------------|--------------------------|
B-------0------------0-----|-------0------------0-----|
G-----2---2--------2---2---|-----2---2--------2---2---|
D---2-------2----2-------2-|---2-------2----2-------2-|
A-0------------0-----------|-3------------3-----------|
E--------------------------|--------------------------|

Asus2
Now there's something, now there’s something, that's changed me
Asus2/C
Getting older a little bolder
Asus2                         Asus2/C
I can see a new surrounding...yeah!

Asus2
Life's about perception hope that you can see the proof
Asus2/C
If you're living in a palace or you got no roof
Asus2                         Asus2/C
Stop complaining all the time, go now.


CHORUS:  (Played along with lyrics below)   (X2)
e:---------------------------------------------|
B:---------------------------------------------|
G:-7-9-9-9-9---7-9-12-7---7-9-9-9-9------------|
D:------------------------------------9-10-9-7-|
A:---------------------------------------------|
E:---------------------------------------------|

Come and go what to say
Make a move stop running away
Live this life, everyday, live on now


VERSE 3:
Finger-pick section played with chords below (The same pattern as
verse 2).  Basically, just hold down the first chord and add the third
finger for the second chord.

  Asus2                      Asus2/C               
e--------------------------|--------------------------|
B-------0------------0-----|-------0------------0-----|
G-----2---2--------2---2---|-----2---2--------2---2---|
D---2-------2----2-------2-|---2-------2----2-------2-|
A-0------------0-----------|-3------------3-----------|
E--------------------------|--------------------------|

Asus2
Time is of the essence, try to keep track
Asus2/C
Once it's gone, once it’s gone, it's never ever coming back
Asus2                      Asus2/C
Sometimes hard to handle...yeah!

Asus2                                Asus2/C
Please forgive me for the times when I just did not see you
Asus2
I didn't realise what I had or what I put you through
Asus2/C
Feel it coming, ticking, chiming


CHORUS:  (Played along with lyrics below)   (X2)
e:---------------------------------------------|
B:---------------------------------------------|
G:-7-9-9-9-9---7-9-12-7---7-9-9-9-9------------|
D:------------------------------------9-10-9-7-|
A:---------------------------------------------|
E:---------------------------------------------|

Come and go what to say
Make a move stop running away
Live this life, everyday, live on now


VERSE 4:
There is the option to strum along with the chords, or play more
aggressively on the down-stroke with the power-chords
(denoted with a “5”)

Am                    C  
Haven't you wondered, haven't you guessed
D                   G
Haven't you dreamed what's coming round next
Am                    C
Haven't you foreseen, master plan
D           G
All of this hold it in your hand
Am              C             D
Deep inside you light a flame don't you stay down
G
Just get up again
Am                 C
Can't you hear it, it's a sign
D
To live, live, live, live this life


CHORUS: (Played along with lyrics below) (Repeat to fade...)
e:-----------------------------------------------|
B:-----------------------------------------------|
G:-7-9-9-9-9---7-9-12-7---7-9-9-9-9--------------|
D:------------------------------------9-10-9-7---|
A:-----------------------------------------------|
E:-----------------------------------------------|

Come and go what to say
Make a move stop running away
Live this life, everyday, live on now...

======================================================================

---------------------------
This file passed through:
       Absolute Tabs
   http://www.tabs.co.za
---------------------------