Bass tablature for Southern ska stomper by Fuzigish
#----------------------------------PLEASE NOTE---------------------------------#
#This file is the author's own work and represents their interpretation of the #
#song. You may only use this file for private study, scholarship, or research. #
#------------------------------------------------------------------------------##

     SONG: Southern Ska Stomper
   ARTIST: Fuzigish
    ALBUM: Southern Ska Stomper
  WEBSITE: www.fuzigish.co.za

     TYPE: Bass Tablature
TABBED BY: Nik Felbab
    EMAIL: rolling_monkey@hotmail.com
COMMENTS: Fuzigish rock! If you haven't seen them live, you must.

INTRO/VERSE x4
G|-----------|------------|
D|-----------|------------| NB: Don't let the A-2 and E-4 ring. Pretty
obvious
A|---------2-|------------|     when you hear it.
E|-4-4-4-4---|-1-1-1-1-4--|


CHORUS x4
G|-----------|-----------|-----------|---------|
D|-----------|-----------|-----------|---------|
A|-----------|-----------|-----------|-1-1-2---|
E|-4-4-4-1-1-|-4-4-4-1-1-|-4-4-4-1-1-|-------4-|


INTRO/VERSE x4


CHORUS x4
There is a variation in this chorus, replacing the last bar of the first
chorus. This comes with the words "broken bones", like this:

    "Bro-   ken   bones"
 G|-----------------------|
 D|-----------------------| Not much of a variation, I know, but I felt it
needed to
 A|---1------2------------| included. Play this bit staccato.
 E|-----------------4-----|


INTRO/VERSE x4
Let the last A-2 ring, leading into the chorus.


CHORUS x4
Like the last chorus, with the variation.


1st INTERLUDE x2
G|----------------|-----------------|
D|----------------|-----------------|
A|-----1~------2~-|-----------------|   ~ = let ring
E|-4~------1~-----|-1-1-1-1-4-4-4-4-|


2nd INTERLUDE x8
G|-----------|
D|-----------|
A|-----------|
E|-4-4-4-1-1-|


CHORUS x4
No variation on this one.


LAST VERSE x3
                "Bro-  ken  bones"
G|------------|---------------------|
D|------------|---------------------| Once again play last bar staccato and
~ = let ring.
A|------------|---1-----2-----------|
E|-4~--1~--4~-|---------------4-----|


OUTRO X1
G|------------------|
D|------------------|
A|---------2-1-0~---|
E|-4-1-3-1----------|



And there you have it! I don't think it's 100% correct, but it's pretty damn
close, and it SOUNDS right. Have fun! - Nik


---------------------------
This file passed through:
       Absolute Tabs
   http://www.tabs.co.za
---------------------------