Guitar tablature for The Way It Could Be by Prime Circle
#----------------------------------PLEASE NOTE--------------------------------#
#This file is the author's own work and represents their interpretation of the#
#song. You may only use this file for private study, scholarship, or research.#
#-----------------------------------------------------------------------------#
#-- File created with Instab - http://www.pconline.com/~smcarey/instab.html --#
#-----------------------------------------------------------------------------#

Author/Artist: Prime Circle
Title: The Way It Could Be
Album: Live This Life
Transcribed by: Jeandre Stander
Email: jstander@myconnection.co.za

Well this is my first tab.
Only the basics are tabbed, so any improvements are welcome.
Just listen to the song for correct number of chords and timing.


Intro

-3---3---3---3---5---3---3---3---3---5--|
---3---3---3---3---3---3---3---3---3---3|
----------------------------------------|
----------------------------------------|
----------------------------------------|
----------------------------------------|                                                                              

Do a pick scratch on low E then play:

--------------------------------------------|This lead bit is played at
--------------------------------------------|the end of the intro, verse, chorus and break.
-----------4-4---7-7---5-5---4-4---7-7---5-5|---------------------------------
-----------5-5---7-7---5-5---5-5---7-7---5-5|----------2----------------------
-----------5-5---5-5---3-3---5-5---5-5---3-3|------3-------2------------------
-----------3-3---------------3-3------------|------------------3--------------
                                                                              
Verse

---------------------------------x-x---------------
---------------------------------------------------
-----------------------------4---4-4---4-----------
-----------------------------5---5-5---5-----------
-----------------------------5---5-5---5-----------
-----------------------------3---3-3---3-----------
                                                                              
Chorus    Break (Acoustic Guitar)

------------------------------|-----------------------------------------------
------------------------------|-----------------------------------------------
--4-4---7-7---5-5---4-4-------|---4-4---7-7---5-5---2-2-----------------------
--5-5---7-7---5-5---5-5-------|---5-5---7-7---5-5---3-3-----------------------
--5-5---5-5---3-3---5-5-------|---5-5---5-5---3-3---3-3-----------------------
--3-3---------------3-3-------|---3-3---------------1-1-----------------------

x= Palm Mute


Order:

Intro
Verse
Chorus
Verse
Chorus
Break
Chorus x2
                                                                              


---------------------------
This file passed through:
       Absolute Tabs
   http://www.tabs.co.za
---------------------------