Guitar tablature for Deur die straights by Hugo (tabbed by rudivanbiljon)
#----------------------------------PLEASE NOTE---------------------------------#
#This file is the author's own work and represents their interpretation of the #
#song. You may only use this file for private study, scholarship, or research. #
#------------------------------------------------------------------------------##

#----------------------------------PLEASE NOTE---------------------------------#
#This file is the author's own work and represents their interpretation of the #
#song. You may only use this file for private study, scholarship, or research. #
#------------------------------------------------------------------------------##

     SONG: Deur die straights (Intro)
   ARTIST: Hugo
    ALBUM: Deur die straights
     TYPE: Guitar Tablature
TABBED BY: Rudi van Biljon
     DATE: 17 January 2014
    EMAIL: rudivanbiljon@gmail.com
COMMENTS: Hi julle!! Ek het gesien daar is nie 'n akkurate weergawe van die liedjie
    op die internet nie, toe besluit ek om die een wat ek uitgewerk het te post.
    Ek hoop dit is darem iets wat sal kan help...  :)

Capo op die derde fret

      C                                                             F
      ↑   ↑   ↓   ↑     ↑   ↓   ↑     ↑   ↓   ↑                 ↓    ↑    ↓   ↓   ↑  ↑
E:------------------------------------------------0-----------------------------------
B:----1---1---3---1-----1---3---1-----1---3---1-------1--3-1---3----1----1---1---3---1
G:----0---0---0---0-----0---0---0-----0---0---0----------------0----0----2---2---2---2
D:----2---2---2---2-----2---2---2-----2---2---2----------------2----2----3---3---3---3
A:----3---3---3---3-----3---3---3-----3---3---3----------------3----3-----------------
E:------------------------------------------------------------------------------------

                                              G                F
      ↑   ↓   ↑     ↑   ↓   ↑     ↑   ↓       ↓    ↓   ↑   ↓   ↓     ↓
E:------------------------------0------------------------------------------0---------
B:----1---3---1-----1---3---1-------1---3-3--------3---3---3---1-----1---1---1--3--1-
G:----2---2---2-----2---2---2----------------------0---0---0---2-----2---------------
D:----3---3---3-----3---3---3-----------------0----0---0---0---3-----3---------------
A:--------------------------------------------2--------------------------------------
E:--------------------------------------------3--------------------------------------

Hierna begin hy maar net van voor af so te sê(luister maar).

Die akkoorde vir die koor is :
Am     F      C
F      Am     G

Geniet hom!

Rudi van Biljon
Rekenaar-Ingenieurswese student by Universiteit van Pretoria

---------------------------
This file passed through:
       Absolute Tabs
   http://www.tabs.co.za
---------------------------