Guitar tablature for My pop val stukkend by Chris Chameleon (tabbed by Boskultuur)
#----------------------------------PLEASE NOTE---------------------------------#
#This file is the author's own work and represents their interpretation of the #
#song. You may only use this file for private study, scholarship, or research. #
#------------------------------------------------------------------------------##

Song: My pop val stukkend
Woorde: Ingrid Jonker (vauit die bundel Rook en Oker, 1965)
Band: Chris Chameleon
Album: Ek herhaal jou
Tabbed by: Phillip Fischer (boskultuur@gmail.com)

*Meeste van die verse word gespeel met die riff hier onder, koor
*gedeeltes bestaan net uit Em, Am en C.


E||--------------------------|--------------------------|
B||--------------------------|--------------------------|
G||--------0--------0-----0--|--------------------------|
D||--2--2-----2--2-----2-----|--------------------------|
A||--------------------------|--3--3--3--3--2--2--2--2--|
E||--------------------------|--------------------------|


   
--------------------------|--------------------------|-----|
--------------------------|--------------------------|-----|
--------------------------|--------------------------|-----|
--------------------------|--------------------------|-----|
--------------------------|--------------------------|-----|
--5--5--5--5--5--5--5--5--|--5--5--5--5--5--5--5--5--|--0--|


--------------------------|--------------------------||
--------------------------|--------------------------||
--------0--------0-----0--|--------------------------||
--2--2-----2--2-----2-----|--------------------------||
--------------------------|--3--3--3--3--2--2--2--2--||
--------------------------|--------------------------||


Die skaduwee waarsku die straat
geslinger uit 'n hoë balkon
deur die skaars jakarandas van die lug
die skaduwee waarsku die son

deur die lied van die penniefluitjies
geval op die dreunende straat
my pop met 'n naam soos 'n liggaam
wat net soos 'n mens kon praat
wat nes 'n mens kon praat

Em
my pop val stukkend x 4

Am
my pop val stukkend x4

My pop soos 'n mossie geskiet
korrel-kaal van die vensterbank
of was dit die wind uit die verte
of was dit my eie hand
was dit my eie hand

My pop het geval toe die son

---------------------------
This file passed through:
       Absolute Tabs
   http://www.tabs.co.za
---------------------------