Bass tablature for Johnny calls the chemist by Wonderboom
#----------------------------------PLEASE NOTE---------------------------------#
#This file is the author's own work and represents their interpretation of the #
#song. You may only use this file for private study, scholarship, or research. #
#------------------------------------------------------------------------------##

     SONG: Johnny Calls The Chemist
   ARTIST: Wonderboom
    ALBUM: Rewind
  WEBSITE: www.wonderboom.co.za

     TYPE: Bass Tablature
TABBED BY: Nik Felbab
    EMAIL: rolling_monkey@hotmail.com
COMMENTS: This is a great SA classic and I couldn't find any bass tabs for
it anywhere, so I decided to tab it myself (which will explain the
inaccuracies). I have no idea if this is right, I know the verse is but not
too sure about the rest. Sounds reasonably correct though. Please email me
any comments you may have, this is my first tab, so I'd like to see what
other people think of it.


VERSE
G|----------------|
D|----------------|  Repeat lots of times and listen to the song for the timing
A|----------------|  ~ = let ring
E|--5h7~----7h5~--|


CHORUS 1
G|-------------------------------------|
D|-------------------------------------| (Is this too simple? I dunno.)
A|-------------------------------------|
E|--7-7-7-7--5-5-5-5--2-2-2-2-2-2-2-2--|


CHORUS 2
G|--------------------|
D|--------------------|
A|--------------------|
E|-7-7--5-5--2-2-2-2--|


POST-CHORUS
G|---------------------|
D|---------------------|
A|---------------------|
E|--5-5-5-5-6-5-7-5-8--|


Order:

Verse
Chorus 1
Break
Verse
Chorus 1
Post-Chorus
Verse (Bass distorted from here onwards)
Chorus 2
Post-Chorus (time 3:10)



---------------------------
This file passed through:
       Absolute Tabs
   http://www.tabs.co.za
---------------------------