Guitar tablature for Birthday card by Tweak
#----------------------------------PLEASE NOTE---------------------------------#
#This file is the author's own work and represents their interpretation of the #
#song. You may only use this file for private study, scholarship, or research. #
#------------------------------------------------------------------------------##

     SONG: Birtday Card
   ARTIST: Tweak 
    ALBUM:
  WEBSITE:

     TYPE: Guitar Tablature
TABBED BY: Werner Brand
    EMAIL: 13113178@puk.co.za
COMMENTS: This is a really great song of Tweak.  I've seen some other tabs of this song, but none of them sounded right.  
    This tab has been on www.mxtabs.net for some time, but I don't think anyone noticed it there.  So here it is!
    Just listen to the song, it's actually quite easy to play.  Please email me on comments and mistakes.

Intro:
    A5            F5            G5            C5
E||------||-------------------------------------------------------|
B||------||-------------------------------------------------------|
G||--5-5-||--2--2-2------------------------------------5--5-5-----|Repeat
D||--5-5-||--2--2-2--------3--3-3--------5--5-5--------5--5-5-----|3 times
A||--3-3-||--0--0-0--------3--3-3--------5--5-5--------3--3-3-----|
E||------||----------------1--1-1--------3--3-3-------------------|
           Yeah � yeah

Then:
    F5        G5       F5
E|----------------------------------------------------------------|
B|----------------------------------------------------------------|
G|--------------------------------------------------------10~~----|
D|--3-3-3-3-3-3-3-3-3-3-3-3-3-3-3-3----5-5-5-5-5-5-5-5----10~~----|
A|--3-3-3-3-3-3-3-3-3-3-3-3-3-3-3-3----5-5-5-5-5-5-5-5----8~~~----|
E|--1-1-1-1-1-1-1-1-1-1-1-1-1-1-1-1----3-3-3-3-3-3-3-3------------|
    P.M P.M P.M P.M P.M P.M P.M P.M    P.M P.M P.M P.M


Pre-verse:
    C5     A5     G5      G5 A5   C5     A5     G5
E|----------------------------------------------------------------|
B|----------------------------------------------------------------|
G|--5-5-----------------------------------5-5---------------------|
D|--5-5----7-7----5-5----x-x-x----5--7----5-5----7-7----5-5-------|
A|--3-3----7-7----5-5----x-x-x----5--7----3-3----7-7----5-5-------|
E|---------5-5----3-3----x-x-x----3--5-----------5-5----3-3-------|


Verse:

E|----------------------------------------------------------------|
B|----------------------------------------------------------------|
G|----------------------------5-5---------------------------------|
D|----------------------------5-5------7-7------5-5--x-x-x--5--7--|
A|----------------------------3-3------7-7------5-5--x-x-x--5--7--|
E|-------------------------------------5-5------3-3--x-x-x--3--5--|
  I wanna thank you for the birthday card...

Pre-chorus:
                           F5          G5          A5
E|----------------------------------------------------------------|
B|----------------------------------------------------------------|
G|----------------------------------------------------------------|
D|-------------------------3---------3-5---------5-7--------------|
A|-------------------------3---------3-5---------5-7--------------|
E|-------------------------1---------1-3---------3-5--------------|
  Here�s a song to say...  Thank you very        much

E|----------------------------------------------------------------|
B|----------------------------------------------------------------|
G|-------------------------------------------------5--------------|
D|-------------------------3---------3-5---------5-5--------------|
A|-------------------------3---------3-5---------5-3--------------|
E|-------------------------1---------1-3---------3----------------|
  It�s unbelieveble how    you don�t give a        ***       
    F5       G5
E|----------------------------------------------------------------|
B|----------------------------------------------------------------|
G|----------------------------------------------------------------|
D|--3-3-3-3-3-3-3-3----5-5-5-5-5-5-5-5----------------------------|
A|--3-3-3-3-3-3-3-3----5-5-5-5-5-5-5-5----------------------------|
E|--1-1-1-1-1-1-1-1----3-3-3-3-3-3-3-3----------------------------|
    P.M P.M P.M P.M    P.M P.M P.M P.M      
    You don�t care     You never did

Chorus:
A5            F5            G5            C5
E|----------------------------------------------------------------|
B|----------------------------------------------------------------|
G|--2--2-2------------------------------------5--5-5--------------|Repeat
D|--2--2-2--------3--3-3--------5--5-5--------5--5-5--------------|3 times
A|--0--0-0--------3--3-3--------5--5-5--------3--3-3--------------|
E|----------------1--1-1--------3--3-3----------------------------|
    I wanna say   thank you     for giving me nothing

Then:
    F5        G5       F5
E|----------------------------------------------------------------|
B|----------------------------------------------------------------|
G|--------------------------------------------------------10~~----|
D|--3-3-3-3-3-3-3-3-3-3-3-3-3-3-3-3----5-5-5-5-5-5-5-5----10~~----|
A|--3-3-3-3-3-3-3-3-3-3-3-3-3-3-3-3----5-5-5-5-5-5-5-5----8~~~----|
E|--1-1-1-1-1-1-1-1-1-1-1-1-1-1-1-1----3-3-3-3-3-3-3-3------------|
    P.M P.M P.M P.M P.M P.M P.M P.M    P.M P.M P.M P.M
   Ps,              don�t expect a    birthday card            next year



PRE-VERSE
VERSE
PRE-CHORUS
CHORUS
PRE-VERSE
VERSE
PRE-CHORUS
CHORUS

Then:
    F5        G5       F5
E|----------------------------------------------------------------|
B|----------------------------------------------------------------|
G|--------------------------------------------------------10~~--5-|
D|--3-3-3-3-3-3-3-3-3-3-3-3-3-3-3-3----5-5-5-5-5-5-5-5----10~~--5-|
A|--3-3-3-3-3-3-3-3-3-3-3-3-3-3-3-3----5-5-5-5-5-5-5-5----8~~~--3-|
E|--1-1-1-1-1-1-1-1-1-1-1-1-1-1-1-1----3-3-3-3-3-3-3-3------------|
    P.M P.M P.M P.M P.M P.M P.M P.M    P.M P.M P.M P.M
   Ps,              don�t expect a    birthday card       next year

Bridge:
There�s a little picking part that haven�t figured out yet,
but over that you play the following

E|----------------------------------------------------------------|
B|----------------------------------------------------------------|
G|--------------------------------------------------------Repeat--|
D|------10------10------10------10------10-10-------------twice---|
A|----------------------------------------------------------------|
E|--8-8-----8-8-----8-8-----8-8-----8-8---------------------------|
    P.M     P.M     P.M     P.M     P.M


E|------------------------------------------------------|
B|------------------------------------------------------|
G|------------------------------------------------------|Repeat twice
D|-10-10-10---12--12--12---14--14--14---15---14---------|and 3rd time
A|--8--8--8---10--10--10---12--12--12---13---12---------|play without
E|------------------------------------------------------|palm mutes
    P.M       P.M P.M      P.M P.M         

F5        G5       F5
E|----------------------------------------------------------------|
B|----------------------------------------------------------------|
G|--------------------------------------------------------10~~----|
D|--3-3-3-3-3-3-3-3-3-3-3-3-3-3-3-3----5-5-5-5-5-5-5-5----10~~----|
A|--3-3-3-3-3-3-3-3-3-3-3-3-3-3-3-3----5-5-5-5-5-5-5-5----8~~~----|
E|--1-1-1-1-1-1-1-1-1-1-1-1-1-1-1-1----3-3-3-3-3-3-3-3------------|
    P.M P.M P.M P.M P.M P.M P.M P.M    P.M P.M P.M P.M
   Ps,              don�t expect a    birthday card            next year

PLAY VERSE 4 TIMES




---------------------------
This file passed through:
       Absolute Tabs
   http://www.tabs.co.za
---------------------------