Guitar tablature for Take Me Away by Downfall (tabbed by Nevay)
#----------------------------------PLEASE NOTE---------------------------------#
#This file is the author's own work and represents their interpretation of the #
#song. You may only use this file for private study, scholarship, or research. #
#------------------------------------------------------------------------------##

Standard E Tuning (Drop D)

INTRO (gt1 clean)
4|---------3-------3---2-|  |---------3-----------2-|
5|---3h5-------1---------|  |---3h5-------1---3-----|
6|-0-----0---0---0---0---|x3|-0-----0---0---0---0---|
                                        (gt1+2 dist)
4|---------3-------3---2-|  |---------3-0-1--0-1--0-1h3-3-|
5|---3h5-------1---------|  |---3h5-----0-1--0-1--0-1h3-3-|
6|-0-----0---0---0---0---|x3|-0-----0---0-1--0-1--0-1h3-3-|

(repeat 2 times)
4|-0--5/7-0-3b--0-11-33-3-|  |-0--5/7-0-3b-0-1--0-1h3-3-|
5|-0--3/5-0-----0-11-11-3-|  |-0--3/5-0----0-1--0-1h3-3-|
6|-0------0-----0-11----3-|x3|-0------0----0-1--0-1h3-3-|
          .                           .
VERSE (gt1 clean)
4|---------3----------3------------------3----------3----3\2-|
5|---3h5--------3h5--------3h5-----3h5--------3h5------------|
6|-0-----0----0-----0----0-------0-----0----0-----0----0-----|

4|---------3----------3------------------3--------------5---|
5|---3h5--------3h5--------3h5-----3h5--------3h5---6-----6-|
6|-0-----0----0-----0----0-------0-----0----0-----0---0-----| x2

4|---------3----------3------------------3----------3----3\2-|
5|---3h5--------3h5--------3h5-----3h5--------3h5------------|
6|-0-----0----0-----0----0-------0-----0----0-----0----0-----|
                                              (gt1+2 dist)
4|---------3----------3------------------3----0-1--0-1--0-1h3-3-|
5|---3h5--------3h5--------3h5-----3h5--------0-1--0-1--0-1h3-3-|
6|-0-----0----0-----0----0-------0-----0----0-0-1--0-1--0-1h3-3-|

CHORUS (gt1+2 dist)x2
4|-0--5/7-0-3b--0-11-33-3-|  |-0--5/7-0-3b-0-1--0-1h3-3-|
5|-0--3/5-0-----0-11-11-3-|  |-0--3/5-0----0-1--0-1h3-3-|
6|-0------0-----0-11----3-|x3|-0------0----0-1--0-1h3-3-|
          .                           .
VERSE
CHORUS
(end measure off with)
4|-0            -|
5|-0 (let ring) -|
6|-0            -|

BRIDGE (gt1 dist)
3|-10-----------------------------------------10-------------------------------------------------|
4|-10----10----5-----5-4b--5----4-5-5h7p5-4---10----10----55555555-055555555-055555555-055555555-|
5|-8-----8-----5-----5-----5------------------8-----8-----55555555-055555555-055555555-055555555-|
6|-8-----7-----5-----5-----5------------------8-----7-----55555555-055555555-055555555-055555555-|
                     .                                    ........  ........  ........  ....
(gt2 dist)
3|-7--9--10-------------------------5--7--9---7--9--10-------------------------5--7--9 (let ring)|
4|-------------10--8--7----5--7--8------------------------10--8--7----5--7--8--------------------|

CHORUS (gt1+2 dist)
4|-0--5/7-0-3b--0-11-33-3-|  |-0--5/7-0-3b-0-1--0-1h3-3-|
5|-0--3/5-0-----0-11-11-3-|  |-0--3/5-0----0-1--0-1h3-3-|
6|-0------0-----0-11----3-|x3|-0------0----0-1--0-1h3-3-|
          .                           .
4|-0--5/7-0-3b--0-11-33-3-|  |-0--5/7-0-3b-0-1-           -|
5|-0--3/5-0-----0-11-11-3-|  |-0--3/5-0----0-1 (let ring) -|
6|-0------0-----0-11----3-|x3|-0------0----0-1-           -|
          .                           .
BRIDGE (gt1 clean)
3|-10--------------------10------------------------|
4|-10----10----5----5----10----10----5-           -|
5|-8-----8-----5----5----8-----8-----5 (let ring) -|
6|-8-----7-----5----5----8-----7-----5-           -|

(gt1 dist)
3|-10---------------------------------------|  |-10------------------------|
4|-10----10----5-----5-4b--5----4-5-5h7p5-4-|  |-10----10----5-           -|
5|-8-----8-----5-----5-----5----------------|  |-8-----8-----5 (let ring) -|
6|-8-----7-----5-----5-----5----------------|x4|-8-----7-----5-           -|
                     .
(gt2 dist)
3|-7--9--10-------------------------5--7--9-|  |-9-----9-----9 (let ring) -|
4|-------------10--8--7----5--7--8----------|x4|---------------------------|

---------------------------
This file passed through:
       Absolute Tabs
   http://www.tabs.co.za
---------------------------