Guitar tablature for Lugsteuring by Fokofpolisiekar
#----------------------------------PLEASE NOTE---------------------------------#
#This file is the author's own work and represents their interpretation of the #
#song. You may only use this file for private study, scholarship, or research. #
#------------------------------------------------------------------------------##

---------------------------------------------------------------------------
      Lugsteuring - Fokofpolisiekar
-------------------------------------------------------------------------------
Tabbed by: Brett Whitfield
Email: whitfield_brett1@yahoo.co.uk

Tuning: E Standard

1st Intro
  gtr1
e|--------------------------------------------------------------------|
B|--------------------------------------------------------------------|
G|--------------------------------------------------------------------|
D|--7h10-7h10-7h10-7h10-7h10-----------------------2p0---------2p0----|
A|-0----0----0----0----0--------------------0-0-2p0---3-0-0-2p0---3h5-|
E|--------------------------------------------------------------------|
|gtr2
e|-------|----------|-------------------------------------------------|
B|-------|----------|-------------------------------------------------|
G|-------|-----5----|-5~---7~-----------------------------------------|
D|-7~--7-|-7~--5--7-|-5~---7~-----------------------------------------|
A|-7~--7-|-7~--3--7-|-3~---5~--0-0-0-0-0-0-0--------------------------|
E|-5~--5-|-5~-----5-|----------5-5-5-5-5-5-5--------------------------|

2nd Intro
  1st 2nd and 4th time  3rd time
e|----------------------|----------------------|
B|----------------------|----------------------|
G|-------5--------5---4-|-------5--------5-7hb-|
D|--5h7--5--5h7---5---4-|--5h7--5--5h7---5-----|
A|-0---0---0----0---0---|-0---0---0----0-------|
E|----------------------|----------------------|

Fill in
e|------------------------------------------------|
B|------------------------------------------------|
G|-5-7-77-7-77-7-7-5~--5-7-77-7-77-7--10--12------|
D|-x-x-xx-x-xx-x-x-x~--x-x-xx-x-xx-x--x---x-------|
A|-3\5-55-5-55-5-5/3~--3\5-55-5-55-5--8---10------|
E|------------------------------------------------|


2nd Intro again

  1st 2nd and 4th time  3rd time
e|----------------------|----------------------|
B|----------------------|----------------------|
G|-------5--------5---4-|-------5--------5-7hb-|
D|--5h7--5--5h7---5---4-|--5h7--5--5h7---5-----|
A|-0---0---0----0---0---|-0---0---0----0-------|
E|----------------------|----------------------|

Pre Verse
e|------------------------|
B|------------------------|
G|------------------------|
D|------------------------|
A|-3-33-3-3-3-3-33-3-3-3--|
E|-1-11-1-1-1-1-11-1-1-1--|
pm. .. . . . . .. . . .

Verse 1 and 2

'Die toesko........... Strum chrds repeatedly
e|-------------------------------------|
B|-------------------------------------|
G|-------------------------------------|
D|-------------------------------------|
A|-7-7-7-7-7-7-7-777-7-7-7-7-7-7-7-7-7-|
E|-5-5-5-5-5-5-5-555-5-5-5-5-5-5-5-5-5-|
pm.....................................

e|-------------------------------------|
B|-------------------------------------|
G|-------------------------------------|
D|-7-7-7-7-7-7-7-777-7-7-7-7-7-7-7-7-7-|
A|-5-5-5-5-5-5-5-555-5-5-5-5-5-5-5-5-5-|
E|-------------------------------------|
pm....................................

'vir almal wat onkundig is wees bly'
e|-------------------------------------|
B|-------------------------------------|
G|-------------------------------------|
D|-------------------------------------|
A|-7-7-7-7-7-7-7-777-7-7-7-7-7-7-7-7-7-|
E|-5-5-5-5-5-5-5-555-5-5-5-5-5-5-5-5-5-|
pm.....................................

Fill in
e|---------------------|
B|---------------------|
G|-5-4-2p0--5-4-2p0----|
D|---------------------|
A|---------------------|
E|---------------------|


Pre 3rd Verse

e|-------------------------------------------|
B|-------------------------------------------|
G|-------------------------------------------|
D|-------------------------------------------|
A|-7-7-7-7-7-7-7-3-3-3-3-3-3-3-2-2-2-2-2-2-2-|
E|-5-5-5-5-5-5-5-1-1-1-1-1-1-1-0-0-0-0-0-0-0-|

two guitars *(one cleanly picking)*

e|--5-------5-------3------0-------|
B|------5-------5------3-------0---|
G|----6-------6------2-------1-----|
D|---------------------------------|
A|-7------7-------3-------2--------|
E|-5------5-------1-------0--------|


The Break Down x2
e|---------------------------------------------------------------------------|
B|---------------------------------------------------------------------------|
G|---------------------------------------------------------------------------|
D|---------------------------------------------------------------------------|
A|-----------------------------------5h7-------------------------------------|
E|-3h5-5-3-5--3-5----3h5-5-3-5--3-5------------------------------------------|

Mini Solo
e|---------------------------------------------------------------------------|
B|----2p02p02p02p02p02p02p02p0--4p04p04p04p04p04p04p04p0---------------------|
G|---------------------------------------------------------------------------|
D|---------------------------------------------------------------------------|
A|---------------------------------------------------------------------------|
E|---------------------------------------------------------------------------|

The rest is up to you !!!!!

| /  slide up
| \  slide down
| h  hammer-on
| p  pull-off
| ~  vibrato
| +  harmonic
| x  Mute note
---------------------------
This file passed through:
       Absolute Tabs
   http://www.tabs.co.za
---------------------------