Guitar tablature for Black Fly by Downfall (tabbed by Nevay)
#----------------------------------PLEASE NOTE---------------------------------#
#This file is the author's own work and represents their interpretation of the #
#song. You may only use this file for private study, scholarship, or research. #
#------------------------------------------------------------------------------##

Standard E tuning (drop-D)

PRE-VERSE (gt1+2 dist)
4|-0m0m-00m--0m0m-00m--0m0m-00m--0m0m-00m-|
5|-0m0m-00m--0m0m-00m--0m0m-00m--0m0m-00m-|
6|-0m0m-00m--0m0m-00m--0m0m-00m--0m0m-00m-|
   . .  ..   . .  ..   . .  ..   . .  ..
(gt1)
2|------------------------------------------15-|
3|---------------------------------------------|
4|---------------------------------------13----|

VERSE x2 (gt1+2 dist)
4|-0m0m-00m--0m0m-00m--0m0m-00m--0m0m-00m------1m1m-11m--1m1m-11m--0m0m-00m--0m0m-00m-|
5|-0m0m-00m--0m0m-00m--0m0m-00m--0m0m-00m------1m1m-11m--1m1m-11m--0m0m-00m--0m0m-00m-|
6|-0m0m-00m--0m0m-00m--0m0m-00m--0m0m-00m------1m1m-11m--1m1m-11m--0m0m-00m--0m0m-00m-|
   . .   .   . .   .   . .   .   . .   .       . .   .   . .   .   . .   .   . .   .
(gt1)
2|------------------------------------------15-|
3|---------------------------------------------|
4|---------------------------------------13----|

CHORUS (gt1+2 dist)
3|-----7-|  |-----8-|  |-----7-|
4|-000-6-|  |-111-7-|  |-000-6-|
5|-000-5-|  |-111-6-|  |-000-5-|
6|-000---|x4|-111---|x2|-000---|x2

VERSE x2 (gt1+2 dist)

CHORUS x2 (gt1+2 dist)

OUTRO
gt2
4|-0m0m-00m--0m0m-00m--0m0m-00m--0m0m-00m-|
5|-0m0m-00m--0m0m-00m--0m0m-00m--0m0m-00m-|
6|-0m0m-00m--0m0m-00m--0m0m-00m--0m0m-00m-|
   . .  ..   . .  ..   . .  ..   . .  ..

gt1
3|-7-7--77---7-7--77---8-8--88---5-5--55m-|
4|----------------------------------------|
5|-5-5--55---5-5--55---6-6--66---3-3--33m-|

---------------------------
This file passed through:
       Absolute Tabs
   http://www.tabs.co.za
---------------------------