Guitar tablature for Teleport 2U by N8ive
#----------------------------------PLEASE NOTE---------------------------------#
#This file is the author's own work and represents their interpretation of the #
#song. You may only use this file for private study, scholarship, or research. #
#------------------------------------------------------------------------------##

n8ive - teleport 2U
Album : teleport 2U
Tabbed by: Shaun Pretorius

Intro:
Riff 1:
E------------------------------
B------------------------------
G-----7------------------------
D-------9~------5-7~-----5-7-5-5
A---7---------7--------7-------
E-0---------0--------0---------

Riff 2:
(Also played as verse)
E---------------------------------------
B---------------------------------------
G-------7~---7-4~-----------------------
D-----9-----------------5-7~-----5-7-5-5
A---7------7----------7--------7--------
E-0-----------------0--------0----------

Chorus:
Listen to the track for the exact amount of strums;
barre chords can also be used...these chords just
sound better on an acoustic guitar.
  Am           C            G            D
E---------------------------3-3-3-3-3-3--2-2-2-2-2-2
B-1-1-1-1-1-1--1-1-1-1-1-1--3-3-3-3-3-3--3-3-3-3-3-3
G-2-2-2-2-2-2--0-0-0-0-0-0--0-0-0-0-0-0--2-2-2-2-2-2
D-2-2-2-2-2-2--2-2-2-2-2-2--0-0-0-0-0-0--0-0-0-0-0-0
A-0-0-0-0-0-0--3-3-3-3-3-3--2-2-2-2-2-2-------------
E---------------------------3-3-3-3-3-3-------------

Bridge:
(This part starts 3 minutes and 15 seconds into the song)
"Teleport 2U...You...You"
E---------------------------------------------------
B---------------------------------------------------
G--------------4-4--4-4--4--5-5--5-5--5--5-5--5-5--5
D-2-2--2-2--2--4-4--4-4--4--5-5--5-5--5--5-5--5-5--5
A-2-2--2-2--2--2-2--2-2--2--3-3--3-3--3--3-3--3-3--3
E-0-0--0-0--0---------------------------------------

The song ends on an E-chord.=


---------------------------
This file passed through:
       Absolute Tabs
   http://www.tabs.co.za
---------------------------