Guitar tablature for Shangri-LA by Die Heuwels Fantasties (tabbed by lodewyk)
#----------------------------------PLEASE NOTE---------------------------------#
#This file is the author's own work and represents their interpretation of the #
#song. You may only use this file for private study, scholarship, or research. #
#------------------------------------------------------------------------------##

Song:Shangri-LA
Artist:Die Heuwels Fantasties
Album:Ja.Nee.Lekker

Hierdie is net die intro riff en word deur song herhaal.


Bietjie delay met regte ritme en siedaar!

e:---------------------------------------------------------------------------------
B:---------------------------------------------------------------------------------
G:------------3---------4------------------------------3--------4------------------
D:--------------------------------4---------9----------------------------4---------
A:---------4-------6----------2----------9---------4---------6--------2--------9---
E:-----2--------4----------0----------7---------2---------4--------0--------7------

---------------------------
This file passed through:
       Absolute Tabs
   http://www.tabs.co.za
---------------------------