Guitar tablature for The Dance by aKing (tabbed by kunuk)
#----------------------------------PLEASE NOTE---------------------------------#
#This file is the author's own work and represents their interpretation of the #
#song. You may only use this file for private study, scholarship, or research. #
#------------------------------------------------------------------------------##

The Dance - aKing
Album: Dutch Courage



This was a marathon tab to write, but well worth it. There are some
instructions in some of the subsections for easier navigation. If you
are up for a challenge, there is a transcription of the guitar solo in
full. Since it is a tab, only the notes appear, you will have to
listen to get the rhythm and rock the solo!

Here are the chords used in the song for quick reference:
       A       C       C#      D       D     Dsus2   Dsus4     G             
e:-----7-------0-------4-------2-------5-------0-------3-------3------
B:-----7-------1-------6-------3-------7-------3-------3-------3------
G:-----8-------0-------6-------2-------7-------2-------2-------0------
D:-----9-------2-------6-------0-------7-------0-------0-------0------
A:-----9-------3-------4---------------5-----------------------2------
E:-----7-------------------------------------------------------3------

Have fun! Please let me know if there any changes/suggestions you have
to make the tab better,
Your Friendly Neighbourhood Kunuk – kunuk@rocketmail.com

======================================================================

INTRO:  
-The best way to minimize shifting in this section is to use power
chords as tabbed
               D
e:--------|-----------5-----|
B:--------|-------------7---|
G:--------|---------------7-|
D:--------|--------7--------|
A:--------|----5------------|
E:--------|-----------------|
      We're gonna be saved

       C#                D
e:-----------4-----|-----------5-----|
B:-------------6---|-------------7---|
G:---------------6-|---------------7-|
D:--------6--------|--------7--------|
A:-----4-----------|-----5-----------|
E:-----------------|-----------------|
Take your time, just don't be late

       C#                A
e:-----------4-----|-----------------|
B:-------------6---|-----------7-----|
G:---------------6-|-------------8---|
D:--------6--------|---------------9-|
A:-----4-----------|--------9--------|
E:-----------------|-----7-----------|
I'm in love and I'm tamed

       C#                D                         D D C#C#
e:-----------4-----|-----------5-----5-|-----------5-5-4-4-|
B:-------------6---|-------------7---7-|-----------7-7-6-6-|
G:---------------6-|-----------------7-|-----------7-7-6-6-|
D:--------6--------|--------7--------7-|-----------7-7-6-6-|
A:-----4-----------|-----5-----------5-|-----------5-5-4-4-|
E:-----------------|-------------------|-------------------|
And it resonates through me


VERSE 1:
-For the verses (and the chorus), there is a trade-off between the
vocals and the lead guitar

D
Lose some speed, baby
A                                        D                     
If there's a little that I don't want to know

    Dsus4  D
e:-3--2---------------|
B:-3--3---------------|
G:-2--2---------------|
D:-0--0---0-2-3-2-0---|
A:------------------4-|
E:--------------------|

D                             A                             G
I've got this feeling burning inside of me that don't wanna go

e:--------------------|
B:--------------------|
G:-0---4-5------------|
D:-----------4---4-5--|
A:--------------------|
E:--------------------|

D               A                        D
Your naked body sings to the music in my backbone

    Dsus4  D
e:-3--2---------------|
B:-3--3---------------|
G:-2--2---------------|
D:-0--0---0-2-3-2-0---|
A:------------------4-|
E:--------------------|

D                          A                                  G
Make me believe so you can kiss away the world that I used to know


CHORUS:
                  G
We’re going to be saved
                          C
Let's dance this dance of beauty
D                A
Enslaved but so free
C           D         D  Dsus4  D  Dsus4  D
Surrendered captivity

Dsus2                                 D
So little time to get the right words out

e:-------------------------|
B:-------------------------|
G:-------------------------|
D:-4-4-4-4-4-5-5-4-4-5-4-2-|
A:-------------------------|
E:-------------------------|

C                                      G
So little time to get the right words out

e:-------------------------------------------------|
B:-------------------------------------------------|
G:---------2-----------2---------4-2-0-------------|
D:-2-4-2-0---0-2-4-2-0---0-2-4-5-------4-5-2-5-5-5-|
A:-------------------------------------------------|
E:-------------------------------------------------|


VERSE 2:
D
Don't lose steam, baby
A                             D
I'll take you where you wanna go

    Dsus4  D
e:-3--2---------------|
B:-3--3---------------|
G:-2--2---------------|
D:-0--0---0-2-3-2-0---|
A:------------------4-|
E:--------------------|

D                                      A                          G
We have been blessed, now angel let me caress the heavy heart you own

e:--------------------|
B:--------------------|
G:-0---4-5------------|
D:-----------4---4-5--|
A:--------------------|
E:--------------------|

D               A                        D
Your naked body sings to the music in my backbone

    Dsus4  D
e:-3--2---------------|
B:-3--3---------------|
G:-2--2---------------|
D:-0--0---0-2-3-2-0---|
A:------------------4-|
E:--------------------|

D                          A                                  G
Make me believe so you can kiss away the world that I used to know


CHORUS:
                  G
We’re going to be saved
          A                   D
Take your time, just don’t be late
       A            G
I'm in love and I'm tamed
       A                 D
And it resonates through me
                  C
Let's dance this dance of beauty
D                A
Enslaved but so free
C           D          D  Dsus4  D  Dsus4  D
Surrendered captivity
Dsus2                                  D
So little time to get the right words out

e:-----------------------|
B:-----------------------|
G:-----------------------|
D:-4-4-4-4-4-5-5-4-4-5-4-|
A:-----------------------|
E:-----------------------|

C                                     G
So little time to get the right words out


GUITAR SOLO:
e:---------------------------------------------------------|
B:--------------10-------8-10------------------------------|
G:-11~~~-11-9-7----7-6-7------9-7-6-7---7-6----------------|
D:------------------------------------------9-7------------|
A:----------------------------------------------11-10-7-5--|
E:---------------------------------------------------------|

e:---------------------------------------------------------|
B:-----3-----------------3-3-3-5-3-5-7-10-7-10-7-10-7-10-7-|
G:---4---5-4-----------4-----------------------------------|
D:-5---------5-------5-------------------------------------|
A:-------------5-4-5---------------------------------------|
E:---------------------------------------------------------|

e:-------------------------------------------------------------------|
B:-------------------------------------------------------------------|
G:-10-10-10-9-9-9-7-7-7----------------------------------------------|
D:----------------------7-9-10-9-5-7-9-9-9-12-11-9-11-9-7-7-9-7------|
A:--------------------------------------------------------------10-9-|
E:-------------------------------------------------------------------|

e:----------------------------------------|
B:----------------------------------------|
G:----------------------------------------|
D:-9-9-9-12-11-9-11-9-7-7---7---7---7-7-9-|
A:------------------------9---9---9-------|
E:----------------------------------------|


OUTRO:
D             A         D    
I forget the ones I've loved  
(So little time to get the right words out)

D                 A         G
And I forget the ones I've lost
(So little time to get the right words out)
Dsus2                                  D
So little time to get the right words out

e:-------------------------|
B:-------------------------|
G:-------------------------|
D:-4-4-4-4-4-5-5-4-4-5-4-2-|
A:-------------------------|
E:-------------------------|

C                                      G
So little time to get the right words out

C
I forget the ones I've loved  
(So little time to get the right words out)

D                 A         G      D    A    D
And I forget the ones I've lost

======================================================================

---------------------------
This file passed through:
       Absolute Tabs
   http://www.tabs.co.za
---------------------------