Guitar tablature for Mozambique by Fuzigish
#----------------------------------PLEASE NOTE---------------------------------#
#This file is the author's own work and represents their interpretation of the #
#song. You may only use this file for private study, scholarship, or research. #
#------------------------------------------------------------------------------##
  
                             =====================
                             FUZIGISH - MOZAMBIQUE
                             =====================

     SONG: Mozambique
   ARTIST: Fuzigish
    ALBUM: Exploited & Distorted
  WEBSITE: www.fuzigish.com

     TYPE: Guitar Tablature
TABBED BY: Ashley Hartzenberg
    EMAIL: amnesiak42@yahoo.com
COMMENTS: It's my first tab, so go easy on me


Intro
=====
e|---------------------------------------------------------------------------
B|--7---7h8p7-------7-----7h8p7-----10-7-------------------------------------
G|--7-7-7-----9-7-4-7---7-7-----9-7----7-------------------------------------
D|---------------------------------------------------------------------------
A|---------------------------------------------------------------------------
E|---------------------------------------------------------------------------

e|--------------------------------------------------------------
B|----7h8p7-------7-----7h8p7-----10-7--------------------------
G|--7-7-----9-7-4-7---7-7-----9-7----7--------------------------
D|--------------------------------------------------------------  X2
A|--------------------------------------------------------------
E|--------------------------------------------------------------

e|---------------------------------------------------------------------------
B|----7h8p7-------7-----7h8p7~-7---------------------------------------------
G|--7-7-----9-7-4-7---7-7------7---------------------------------------------
D|---------------------------------------------------------------------------
A|---------------------------------------------------------------------------
E|---------------------------------------------------------------------------


Verse 1
=======
e|--5-5----5-----5---5---5-5----5-----5---5---------------------
B|--7-7----7-----5---5---7-7----7-----5---5---------------------
G|--------------------------------------------------------------
D|--------------------------------------------------------------  X4
A|--------------------------------------------------------------
E|--------------------------------------------------------------


Chorus
======
   Palm Muted          Palm Muted    
    |------|     |--------------------|
e|--5--5--5--5---7--7--7--7--5--5--5--5--------------------------------------
B|--7--7--5--5/7-7--7--7--7--7--7--5--5--------------------------------------
G|---------------------------------------------------------------------------
D|---------------------------------------------------------------------------
A|---------------------------------------------------------------------------
E|---------------------------------------------------------------------------


Intro Part Again
================
e|---------------------------------------------------------------------------
B|----7h8p7--------------7h8p7-----10-7--------------------------------------
G|--7--------9-7-4-7---7-------9-7-------------------------------------------
D|---------------------------------------------------------------------------
A|---------------------------------------------------------------------------
E|---------------------------------------------------------------------------

e|---------------------------------------------------------------------------
B|----7h8p7-------------7h8p7-10---------------------------------------------
G|--7-------9-7-4-7---7----------12-11/9~------------------------------------
D|---------------------------------------------------------------------------
A|---------------------------------------------------------------------------
E|---------------------------------------------------------------------------


Verse 2
=======
           Palm Muted           Palm Muted   
           |---------|          |---------|
e|--5-5----5-----5---5---5-5----5-----5---5---------------------
B|--7-7----7-----5---5---7-7----7-----5---5---------------------
G|--------------------------------------------------------------
D|--------------------------------------------------------------  X4
A|--------------------------------------------------------------
E|--------------------------------------------------------------
    (I think it's palm muted, not sure, mess around with it)

Chorus
======

Solo
====
e|--2-2h3-5-3h5p2---2-3-2-0-2-0------2-2h3p2-5-5--3h5------5/7-5-------------
B|----------------3-------------3-2-------------------3-3--------------------
G|---------------------------------------------------------------------------
D|---------------------------------------------------------------------------
A|---------------------------------------------------------------------------
E|---------------------------------------------------------------------------
(The 3h5p2 is a bit fast, but it doesn't really make a difference if you
  leave the p2 out)

e|----------5---------3---------5-----------------5~---9^-7-7h9-5------------
B|--3-3h5p3---2-2h3p2---3-3h5p3---8-7/5~--3-3h5p3----------------------------
G|---------------------------------------------------------------------------
D|---------------------------------------------------------------------------
A|---------------------------------------------------------------------------
E|---------------------------------------------------------------------------
(For a dumbass like me I think this solo's pretty good, so proud of myself)

After Solo
==========
e|---------------------------- |---------------------------------------------
B|--7-----5-----3-----2------- |--7-7----5-5----3-3----2-2-------------------
G|--7-----4-----2-----2------- |--7-7----4-4----2-2----2-2-------------------
D|---------------------------- |---------------------------------------------
A|---------------------------- |---------------------------------------------
E|---------------------------- |---------------------------------------------

e|---------------------------------------------------------------------------
B|--7-7----5-5----3-3----2-2-------------------------------------------------
G|--7-7----4-4----2-2----2-2-------------------------------------------------
D|--5-5----2-2----0-0----0-0-------------------------------------------------
A|---------------------------------------------------------------------------
E|---------------------------------------------------------------------------

e|---------------------------------------------------------------------------
B|--7-7--7-7-7-7--5-5--5-5-5-5--3-3--3-3-3-3--2-2-2-2-2-2-2------------------
G|--7-7--7-7-7-7--4-4--4-4-4-4--2-2--2-2-2-2--2-2-2-2-2-2-2------------------
D|--5-5--5-5-5-5--2-2--2-2-2-2--0-0--0-0-0-0--0-0-0-0-0-0-0------------------
A|---------------------------------------------------------------------------
E|---------------------------------------------------------------------------


Chorus
======
   Palm Muted          Palm Muted    
    |------|     |--------------------|
e|--5--5--5--5---7--7--7--7--5--5--5--5---7--7--7--7-------------------------
B|--7--7--5--5/7-7--7--7--7--7--7--5--5/7-7--7--7--7-------------------------
G|---------------------------------------------------------------------------
D|---------------------------------------------------------------------------
A|---------------------------------------------------------------------------
E|---------------------------------------------------------------------------

   Palm Muted          Palm Muted    
    |------|     |--------------------|
e|--5--5--5--5---7--7--7--7--5--5--5--5--------------------------------------
B|--7--7--5--5/7-7--7--7--7--7--7--5--5--------------------------------------
G|---------------------------------------------------------------------------
D|---------------------------------------------------------------------------
A|---------------------------------------------------------------------------
E|---------------------------------------------------------------------------

Outro
=====
e|---------------------------------------------------------------------------
B|----7h8p7--------7-----7h8p7-----10-7-----7h8p7-------7--------------------
G|--7--------9-7-4-7---7-------9-7----7---7-------9-7-4-7--------------------
D|---------------------------------------------------------------------------
A|---------------------------------------------------------------------------
E|---------------------------------------------------------------------------



---------------------------
This file passed through:
       Absolute Tabs
   http://www.tabs.co.za
---------------------------