Guitar tablature for Dalk 'n boerseun by Klopjag
#----------------------------------PLEASE NOTE---------------------------------#
#This file is the author's own work and represents their interpretation of the #
#song. You may only use this file for private study, scholarship, or research. #
#------------------------------------------------------------------------------##

     SONG: Dalk 'n Boerseun
   ARTIST: Klopjag
    ALBUM: 13/02
  WEBSITE: www.klopjag.co.za

     TYPE: Guitar Tablature
TABBED BY: Benjamin Schmidt
    EMAIL: bvschmidt5@absamail.co.za
COMMENTS: Ek het hulle live gesien by die Hartenbos Hoofleiersimposium in 2002
           en van toe af het ek probeer om hulle musiek uit te figure


Intro:  E (power chord +- so 10 strums)      A (power chord ook +- so 10 strums)
e:-------0------------------------------------0------------------------------------------
b:-------0------------------------------------0------------------------------------------
g:-------9------------------------------------6------------------------------------------
d:-------9------------------------------------7------------------------------------------
a:-------7------------------------------------7-------------------------------------11---
e:-------0------------------------------------5------------------------------------------

Miskien hou jy meer van Hooch as van bier, miskien dink jy dikmelk is 'n bietjie te suur
e:-------0------------------------------------0-----------------------------------------
b:-------0------------------------------------0-----------------------------------------
g:-------9------------------------------------6-----------------------------------------
d:-------9------------------------------------7-----------------------------------------
a:-------7------------------------------------7-----------------------------------------
e:-------0------------------------------------5-----------------------------------------

Chord Procession bly dieselfde vir die elke vers, dan:

...met 'n houtsteelkerfmes
e:-----------------------------------------------------------------------------------------
b:-----------------------------------------------------------------------------------------
g:-------------------------------------6---6-7-6-------------------------------------------
d:------------------7------7----9-7-9----7--------7----------------------------------------
a:--------------7~9----7~9---------------------------9-7-9-----------------------11--------
e:-----------------------------------------------------------------------------------------
2de vers se chords is presies die dieselfde soos vers een, dan

Koor:
 Pasoooooooooooooooooooooooooooooop   Pasoooooooooooooooooooooooop
e:-----------------0--------------------------------------0------------------------
b:-----------------0--------------------------------------0------------------------
g:-----------------6--------------------------------------9------------------------
d:-----------------7--------------------------------------9------------------------
a:-----------------7--------------------------------------7------------------------
e:-----------------5--------------------------------------0------------------------

 Jy moet pasop,                          want die rooinekke hou jou versekerlik dop
e:--------------------0---0---0---0---0---0---0-------------------------------0-----------
b:--------------------1---0---1---0---1---0---1-------------------------------0-----------
g:--------------------2---2---2---2---2---2---2-------------------------------9-----------
d:--------------------2---2---2---2---2---2---2-------------------------------9-----------
a:--------------------0---0---0---0---0---0---0-------------------------------7-----------
e:--------------------0---0---0---0---0---0---0-------------------------------0-----------
        
 Hulle hou vir jou dop
e:--------------0-----------------------------------------------------------------
b:--------------0-----------------------------------------------------------------
g:--------------9-----------------------------------------------------------------
d:--------------7-----------------------------------------------------------------
a:--------------7-----------------------------------------------------------------
e:--------------5-----------------------------------------------------------------

Jy gaan definitief sukkel om di� liedjie te speel net om hierdie tab te volg,
want hierdie is net gedeeltes van die liedjie.  Die liedjie is oor en oor +-
dieselfde, jy moet net na dit luister en dit sal makliker gaan.
As jy die lyrics van die liedjie soek, email vir my en ek sal dit vir jou
gee, want ek het die CD vir my gekoop en hulle lyrics is in die boekie!!
Lekker speel!!


---------------------------
This file passed through:
       Absolute Tabs
   http://www.tabs.co.za
---------------------------