Bass tablature for Die Bure by The Buckfever Underground (tabbed by crumpuppet)
#----------------------------------PLEASE NOTE---------------------------------#
#This file is the author's own work and represents their interpretation of the #
#song. You may only use this file for private study, scholarship, or research. #
#------------------------------------------------------------------------------##

Tab deur Hannes van Zyl

The Buckfever Underground - Die Bure

Twee weergawes, hang af van hoe lui jou vingers is.

version 1:

G|-------------------------------------|
D|------5---5------3--1---------3------|
A|---3----6-------------------3----5---|
E|--------------5--------4-------------|


version 2:

G|-------------------------------------|
D|------5---5------3--1---------3--0---|
A|---3----6-----0-------------3--------|
E|-----------------------4-------------|

---------------------------
This file passed through:
       Absolute Tabs
   http://www.tabs.co.za
---------------------------