Guitar tablature for House party by Tweak
#----------------------------------PLEASE NOTE---------------------------------#
#This file is the author's own work and represents their interpretation of the #
#song. You may only use this file for private study, scholarship, or research. #
#------------------------------------------------------------------------------##

     SONG: House party
   ARTIST: Tweak
    ALBUM: Dirty Sanchez and the misfit kids
  WEBSITE:

     TYPE: Guitar Tablature
TABBED BY: Nicolaas Steenekamp
    EMAIL: nicolaassteenekamp@worldonline.co.za
COMMENTS:
          Ek sal se dis so 85% reg getab maar ek was
          so bietjie te lui gewees om al die picking te tab.So
          wees oulik en tab dit vir my. :-)

        NB:   Drop tune jou baby tot by D
           

  Intro: speel 2x maar 2de keer los die laaste 13, 14, 14, uit.

e:---10--10----12--12----12--14----14--14----------------------------------------
b:12--------12--------13--------13-----------------------------------------------
g:-------------------------------------------------------------------------------
d:-------------------------------------------------------------------------------
a:-------------------------------------------------------------------------------
e:-------------------------------------------------------------------------------

  

Dan kom daar so half van 'n intro chorus(speel net die bas snare):
e:-------------------------------------------------------------------------------
b:-------------------------------------------------------------------------------
g:-------------------------------------------------------------------------------
d:5-5-5-5-3-3-3-3-7-7-7-12--12-12-5-5-5-5-3-3-3-3-7-7-9-10-----------------------
a:5-5-5-5-3-3-3-3-7-7-7-12--12-12-5-5-5-5-3-3-3-3-7-7-9-10-----------------------
e:3-3-3-3-0-0-0-0-5-5-5-10--10-10-3-3-3-3-0-0-0-0-5-5-7-8------------------------
                  
  
Verse:
  
Herhaal hierdie oor en oor tot by waar hulle sing:
"Better not have one of your unruly house partys"
e:-------------------------------------------------------------------------------
b:0-5--3--0-3-5-7--0-5--3--0-3-5-7-----------------------------------------------
g:-------------------------------------------------------------------------------
d:-------------------------------------------------------------------------------
a:-------------------------------------------------------------------------------
e:-------------------------------------------------------------------------------
                                                                         
  

Nog steeds verse:                                                     7
Dan heavy distored maar hou dit sag(speel 4x maar 4de keer net tot by 5 :
e:-------------------------------------------------------------------------------
b:-------------------------------------------------------------------------------
g:-------------------------------------------------------------------------------
d:5-5-5-5-3-3-3-3-7-7-7-12--12-12------------------------------------------------
a:5-5-5-5-3-3-3-3-7-7-7-12--12-12------------------------------------------------
e:3-3-3-3-0-0-0-0-5-5-5-10--10-10------------------------------------------------

Dan kom die chorus- net soos hierdie goed hierbo maar net harder en minder distortion.



Dan is daar so een stuk wat flippen nice klink wat so gaan.herhaal dit so 'n paar keer.
Die chords is reg maar die strumming is nie so vars nie.

e:-------------------------------------------------------------------------------
b:-------------------------------------------------------------------------------
g:-----8--8-7--7-----------8--8-7--7---------------------------------------------
d:5--5-8--8-7--7-8--8-5--5-8--8-7--7-8--8-5--5-----------------------------------
a:5--5-6--6-5--5-8--8-5--5-6--6-5--5-8--8-5--5-----------------------------------
e:3--3-----------6--6-3--3-----------6--6-3--3-----------------------------------

  En hier het ek spesail plek opgelos vir iemand wat so gaaf sal wees om die tab klaar
  te maak.Want ek is slapgat!!
e:-------------------------------------------------------------------------------
b:-------------------------------------------------------------------------------
g:-------------------------------------------------------------------------------
d:-------------------------------------------------------------------------------
a:-------------------------------------------------------------------------------
e:-------------------------------------------------------------------------------

Luister maar net eers na die song dan sal jy dit vinnig leer.
Ja dis dit,so as jy enige kwale het.
email my asb by nicolaassteenekamp@worldonline.co.za (believe me, ek het nie my
email adress gekies nie)

K,Vir al julle punk freaks s� ek cheers.



---------------------------
This file passed through:
       Absolute Tabs
   http://www.tabs.co.za
---------------------------