Guitar tablature for Buy the world by Tweak
Band: Tweak
Song: Buy the world
Album: The romantic lure of possum worship
tabbed by johan swanepoel

Intro: riff1 = continues through whole intro
|(this is jus to show you how it ends,| - | you�ll c wot I mean) |
e|---------------|-------------------------------------|
B|---------------|-------------------------------------|
G|-9-9-8-8-9-9-8-|-9-9-8-8-11-11-11-11-11-11-----------|
D|--9-9-9-9-9-9--|--9-9-9-9--9--9--9--9--9-------------|
A|---------------|-------------------------------------|
E|---------------|-------------------------------------|

Intro riff 2 / verse
Play: intro = power-chords and verse = barred-chords
e|-----------------------------------------------|
B|-----------------------------------------------|
G|---9-9-9---------------------------------------|
D|---9-9-9---6-6-6---7-7-7---9-9-9---------------| note = verse and intro
A|---7-7-7---6-6-6---7-7-7---9-9-9---------------| different strumming
E|-----------4-4-4---5-5-5---7-7-7---------------|

Play this part where he sings " well I never really met her�"
Just listen for it.
e|---11-12-11-7---12-11-7---11-12-11-7---11-7------------| play it
B|-------------------------------------------------------| through  
G|-------------------------------------------------------| whole verse
D|-------------------------------------------------------|
A|-------------------------------------------------------|
E|-------------------------------------------------------|

Chorus:
"I�ll buy the�� you, if you�� if you want� �I will.."
e|-----------------------------------------------------------------|
B|-----------------------------------------------------------------|
G|---9-9-9-9-9-9-9-------------------------------------------------|
D|---9-9-9-9-9-9-9-------6-6-6-6-6-6-6---7-7-7-7-7-7-7---9-9-------|
A|---7-7-7-7-7-7-7-------6-6-6-6-6-6-6---7-7-7-7-7-7-7---9-9-------|
E|-----------------------4-4-4-4-4-4-4---5-5-5-5-5-5-5---7-7-------|

after the second time he sings that he plays somethin like this twice.
e|------------------------------------|
B|------------------------------------|
G|---9-9-9----------------------------|
D|---9-9-9---6---7---9---7------------|
A|---7-7-7---6---7---9---7------------|
E|-----------4---5---7---5------------|

That�s everything I could hear. I really think it�s accurate.
Play it loud, drive your mom crazy and have fun.
And support SA rock� its worth it!