Guitar tablature for Godthang by Lithium
#----------------------------------PLEASE NOTE---------------------------------#
#This file is the author's own work and represents their interpretation of the #
#song. You may only use this file for private study, scholarship, or research. #
#------------------------------------------------------------------------------##

Lithium - Godthang
Album : Broken
Tabbed by : Shaun Pretorius

OK...
when Dave sings "Godthang has found you" you play this:
(the riff is also played at the end of each verse when Dave sings
"..find you..")
E-----
B-----
G-5---
D-5--5
A-3--5
E----3

then... {riff 1}
E---------------------------------------------
B---------------------------------------------
G---------------------------------------------
D---------------------------------------------
A---------3----------------------5-5h6p5-3-5-3
E-5-5-3h5---5-5-3h5-3h5--5-5-3h5--------------

then... {riff 2}
E-------------------------------------------------
B-------------------------------------------------
G-------------------------------------------------
D-5/7-x-7--5/7-x-7--5/7-x-7--5/7-x-7--------------
A-5/7-x-7--5/7-x-7--5/7-x-7--5/7-x-7-5-5h6p5-3-5-3
E-3/5-x-5--3/5-x-5--3/5-x-5--3/5-x-5--------------

then....when he sings "Godthang's got you by your mind" {riff 3}
(not sure about this riff)
E----------
B----------
G-5--------
D-5-5-4-3-2
A-3-5-4-3-2
E---3-2-1-0


THE SONG MAINLY CONSISTS OF THE FIRST AND THIRD RIFFS
CAN'T FIGURE OUT THE SOLO..SORRY
CHEERS


---------------------------
This file passed through:
       Absolute Tabs
   http://www.tabs.co.za
---------------------------