Bass tablature for That girl by Wonderboom
#----------------------------------PLEASE NOTE---------------------------------#
#This file is the author's own work and represents their interpretation of the #
#song. You may only use this file for private study, scholarship, or research. #
#------------------------------------------------------------------------------##

     SONG: That Girl
   ARTIST: Wonderboom
    ALBUM: Tell Someone Who Cares
  WEBSITE: www.wonderboom.co.za

     TYPE: Bass Tablature
TABBED BY: Nik Felbab
    EMAIL: rolling_monkey@hotmail.com
COMMENTS: Really simple song, but I love it.

Rest until 0:09

VERSE Pt.1 x4
G|---------|
D|---------| Play each note whenever Danny hits
A|-----3---| the Hi-Hat
E|-5-5---3-|

VERSE Pt.2 x2
G|------------------|
D|------------------| Play this staccato
A|------------------|
E|-5-5-5-5-5-5-5-3/-|

VERSE Pt.1 x2
VERSE Pt.2 x2
VERSE Pt.1 x4

CHORUS x1
G|------------------|------------------|-----------------|-------|
D|------------------|------------------|-----------------|*-----*| * = Play 8 times
A|------------------|------------------|-3-3-3-3-3-3-3-3-|*-----*| *
E|-5-5-5-5-5-5-5-3/-|-5-5-5-5-5-5-5-3/-|-----------------|--5-3--|

VERSE Pt.1 x4
VERSE Pt.2 x4
VERSE Pt.1 x4
VERSE Pt.2 x4
VERSE Pt.1 x4
CHORUS x1

LAST CHORUS x1
G|------------------|------------------|-----------------|
D|------------------|------------------|-----------------|
A|------------------|------------------|-3-3-3-3-3-3-3-3-|
E|-5-5-5-5-5-5-5-3/-|-5-5-5-5-5-5-5-3/-|-----------------|

G|-------|-------|--------|
D|*-----*|*-----*|*------*|
A|*-----*|*-----*|*------*|
E|--5-3--|--8-6--|--10-8--|
    x8      x4      x4

VERSE Pt.1 x3

OUTRO x1
G|----------------|
D|----------------|
A|-------3--------|
E|-3h5-3---3--3-5-|


---------------------------
This file passed through:
       Absolute Tabs
   http://www.tabs.co.za
---------------------------