Guitar tablature for Heartbreak Street by Jesse Clegg (tabbed by kunuk)
#----------------------------------PLEASE NOTE---------------------------------#
#This file is the author's own work and represents their interpretation of the #
#song. You may only use this file for private study, scholarship, or research. #
#------------------------------------------------------------------------------##

Heartbreak Street - Jesse Clegg
Album:  When I Wake Up



There is just something to be said about a video that features some
good old American muscle. Thumbs up to the ’72 Mustang Mach 1! Just
one question though...who removed the killer full-length body stripes?

This is one of those songs with completely independent guitar lines,
which is great for trading off lines with a friend, or giving you some
variety. More challenging beginner level tab with a few bar chords
depending on your preference. Since there are two distinct lines, you
will really need to listen to the song to figure out its feel.

Here are the chords used in the song for quick reference:
       D      D      F      G      G     Gm      G7
e:-----2------5------1------3------3------3------1-----
B:-----3------7------1------0------3------3------0-----
G:-----2------7------2------0------4------3------0-----
D:-----0------7------3------0------5------5------0-----
A:------------5------3------2------5------5------2-----
E:-------------------1------3------3------3------3-----

Have fun! Please let me know if there any changes/suggestions you have
to make the tab better,
Your Friendly Neighbourhood Kunuk – kunuk@rocketmail.com

======================================================================

INTRO:
-This intro has 2 guitar lines running over and into each other. One
provides the basic chord progression used throughout the song, the
other provides more interest to the song with high ringing tones

GUITAR LINE #1
- This is the arpeggio line, hits the high ringing notes. This lines
continues through the song, so if you like this line, this is as much
as you need to learn

e:--------------------------------|----------------------------------|
B:--------------------------------|----------------------------------|
G:-------7----7----7----7----7----|-------7----7----7----7----7------|
D:----10---10---10---10---10---10-|----10---10---10---10---10---10---|
A:-10-----------------------------|-10-------------------------------|
E:--------------------------------|----------------------------------|

e:--------------------------------|----------------------------------|
B:--------------------------------|----------------------------------|
G:-------7----7----7----7----7----|-------7----7----7----7----7------|
D:----10---10---10---10---10---10-|----10---10---10---10---10---10-9-|
A:-8------------------------------|-10-------------------------------|
E:--------------------------------|----------------------------------|

GUITAR LINE #2
-This is the chord line, hitting the bass notes and providing the
foundation

   G                Gm               F                G7
e:-3~~~-----------|-3~~~-----------|-1~~~-----------|-3~~~-----------|
B:-3~~~-----------|-3~~~-----------|-1~~~-----------|-3~~~-----------|
G:-4~~~-----------|-3~~~-----------|-2~~~-----------|-4~~~-----------|
D:-5~~~-----------|-5~~~-----------|-3~~~-----------|-6~~~-----------|
A:-5~~~-----------|-5~~~-----------|-3~~~-----------|-5~~~-----------|
E:-3~~~-----------|-3~~~-----------|-1~~~-----------|-3~~~-----------|


VERSE 1:
G
Ashtrays and cigarettes
Gm
Slow-mo smoke silhouettes
F                               D
Time stops and starts again for no man
G
Dim, flickering street lights
Gm
Phone booth rings through the night
F                           D
People walk past but no one answers

  G        Gm       F        D
Yeah.....yeah.....yeah.....yeah.....


CHORUS:
G
Welcome to
F          D
Heartbreak Street
G                            F
Where your sorrow leaves you behind
         D            Gm
And your life starts again
        F                Gm               F
Starts again.....starts again.....starts again

G.....Gm.....F.....D.....


VERSE 2:
G
Sirens and fireflies
Gm
Silence can’t tell us lies
F                         D
Torn, crumpled map on the dashboard
G
Lights change from green to red
Gm
Long, lonely road ahead
F                                   D
Watching the world through my glass window

  G        Gm        F       D
Yeah.....yeah.....yeah.....yeah.....


CHORUS:
G
Welcome to
F          D
Heartbreak Street
G                              F
Where your sorrow leaves you behind
         D            Gm
And your life starts again
        F                Gm               F
Starts again.....starts again.....starts again


GUITAR SOLO:
-This solo plays alone the first run through, then plays in the
background behind the vocals
e:-----------------------------------------------------|
B:-----------------------------------------------------|
G:-----------------------------------------------------|
D:----12~~-----------10~~-------15-12~~--------10------|
A:-10-------10-12-13---------------------12-13---------|
E:-----------------------------------------------------|

e:-----------------------------------------------------|
B:-----------------------------------------------------|
G:-----------------------------------------------------|
D:----12~~-----------10~~-------15-12~~--------10------|
A:-10-------10-12-13---------------------12-13---------|
E:-----------------------------------------------------|


OUTRO:
G
Welcome to
F             D
Heartbreak Street
Gm         F
Welcome to

G
Welcome to
F             D
Heartbreak Street
Gm         F    D    Gm
Welcome to

======================================================================

---------------------------
This file passed through:
       Absolute Tabs
   http://www.tabs.co.za
---------------------------