Guitar tablature for My Engel by Melktert Kommissie (tabbed by kunuk)
#----------------------------------PLEASE NOTE---------------------------------#
#This file is the author's own work and represents their interpretation of the #
#song. You may only use this file for private study, scholarship, or research. #
#------------------------------------------------------------------------------##

My Engel - Die Melktert Kommissie
Album: Wonderwoorde


I realise that this is not the first tab for this song, but it is the
first that includes the second guitar licks that make all 'Tert' songs
extra tasty :) You can always just play the chords written above if
you get stuck, which is the first guitar’s part...but since there are
only two basic patterns to learn, I recommend giving them a go.

Here are the chords used in the song for quick reference:
       A       D       G    
e------0-------2-------3-------
B------2-------3-------0-------
G------2-------2-------0-------
D------2-------0-------0-------
A------0---------------2-------
E----------------------3-------

Have fun! Please let me know if there any changes/suggestions you have
to make the tab better,
Your Friendly Neighbourhood Kunuk – kunuk@rocketmail.com

======================================================================

INTRO:
D.....G.....D.....A.....(X4)

e:---5-------5-------5-------|---5-------5-------5-------|
B:-7-------7-------7---5-----|-7-------7-------7---5-----|
G:-----------------------7-7-|-----------------------7-7-|
D:---------------------------|---------------------------|
A:---------------------------|---------------------------|
E:---------------------------|---------------------------|


VERS  1:
     D   G
Jy stuur vir my mooi boodskappe
D       A
Saam met die wind
   D          G 
En ek sien jou glimlag daagliks
      D  A
In elke verlore straatkind
     D      G
En dan pos jy 'n reënwolk
    D            A
Om saam met my te treur
    D            G
In koeverte van verlange
    D          A    
En seëls gedruk in ink van seer


D.....G.....D.....A.....(X2)

e:---5-------5-------5-------|---5-------5-------5-------|
B:-7-------7-------7---5-----|-7-------7-------7---5-----|
G:-----------------------7-7-|-----------------------7-7-|
D:---------------------------|---------------------------|
A:---------------------------|---------------------------|
E:---------------------------|---------------------------|


KOOR:
         D G
Want jy's my engel
     D       A
Kom kuier by my vanaand
    D       G
My engel
            D          A
Wat tussen 'n duisend liggies baljaar
   D               G  
Agter branders waar die son min skyn
    D             A
En die mense altyd so jaag
   D         G 
My engel kom raak rustig
      D     A      D
Hier langs my lyf vanaand


INTERLUDE:
D.....G.....D.....A.....(X2)

--Played with lyrics below                 (X2)
e:----10---10-----5---5------10---10----5---5-|
B:-12----12-----7---7-----12---12-----7---7---|
G:--------------------------------------------|
D:--------------------------------------------|
A:--------------------------------------------|
E:--------------------------------------------|

Ooo ooo ooo ooo ooo
Ooo ooo ooo ooo ooo


VERS 2:
           D        
In jou ou voetspore
    G
In jou ou land
             D
Volg ek die kronkelpad
       A
Van ons vriendskapsjare
    D           G
En alles wat jy my geleer het
    D        A
Al die woorde wat ons deel
     D      G
Moes ek vasklou aan ‘n bondel liefde
       D     A
Om die pyn mee weg te streel


KOOR:
         D G
Want jy's my engel
     D       A
Kom kuier by my vanaand
    D       G
My engel
            D          A
Wat tussen 'n duisend liggies baljaar
   D               G  
Agter branders waar die son min skyn
    D             A
En die mense altyd so jaag
   D         G 
My engel kom raak rustig
      D     A      D
Hier langs my lyf vanaand


INTERLUDE:
D..... G..... D..... A..... (X2)

--Played with lyrics below                 (X2)
e:----10---10-----5---5------10---10----5---5-|
B:-12----12-----7---7-----12---12-----7---7---|
G:--------------------------------------------|
D:--------------------------------------------|
A:--------------------------------------------|
E:--------------------------------------------|

Ooo ooo ooo ooo ooo
Ooo ooo ooo ooo ooo


VERS 3:
    D           G
Oor 'n bottomless koppie koffie
       D
Moes ek my bottomless liefde
   A
Aan jou verklaar     
D      G
Met die woorde van 'n spyskaart
 D      A      D
Moes ek vir jou vaarwel
G    D   A    D   G    D    A    D
Vaarwel, vaarwel, vaarwel, vaarwel


KOOR:
         D  G
Want jy's my engel
     D       A
Kom kuier by my vanaand
    D       G
My engel
            D          A
Wat tussen 'n duisend liggies baljaar
   D               G  
Agter branders waar die son min skyn
    D             A
En die mense altyd so jaag
   D         G 
My engel kom raak rustig
      D     A      D
Hier langs my lyf vanaand


OUTRO:
-Played with lyrics below   (Repeat to fade...)
e:----10---10-----5---5------10---10----5---5-|
B:-12----12-----7---7-----12---12-----7---7---|
G:--------------------------------------------|
D:--------------------------------------------|
A:--------------------------------------------|
E:--------------------------------------------|

Ooo ooo ooo ooo ooo
Ooo ooo ooo ooo ooo
Ooo ooo ooo ooo ooo
Ooo ooo ooo ooo ooo

Want jy's my engel
Ooo ooo ooo ooo ooo
Ooo ooo ooo ooo ooo
Ooo ooo ooo ooo ooo
Ooo ooo ooo ooo ooo


======================================================================
Here is an English translation for all of those people out there like
myself, who dig the music, but are new to the language:
======================================================================

VERSE 1:
You’re sending me pretty messages
Along with the wind
And I see your smile every day
In every lost street kid
And then mail you a rain cloud
To long I mourn
In envelopes of longing
And painful seals pressed in ink

CHORUS:
Because you’re my angel
Come visit me this evening
My angel
What between a one thousand lightly romping
Behind branders where the sun little seem
And the people are always chasing
My angel come get peaceful
Here at my side this evening

VERSE 2:
In your old footprints
In your old country
I follow the meandering path
Of our years of friendship
And everything which I have learned
All the words that our part/portion
Should I vasklou on a bundle affection
To the pain also being gone to caressed

CHORUS:
Because you’re my angel
Come visit me this evening
My angel
What between a one thousand lightly romping
Behind branders where the sun little seem
And the people are always chasing
My angel come get peaceful
Here at my side this evening

VERSE 3:
Over a bottomless cup of coffee
Should my bottomless affection
For you to interpret
With the words from a menu
Should I for your farewell
Farewell, farewell, farewell, farewell

CHORUS:
Because you’re my angel
Come visit me this evening
My angel
What between a one thousand lightly romping
Behind branders where the sun little seem
And the people are always chasing
My angel come get peaceful
Here at my side this evening

Ooo ooo ooo ooo ooo...
Because you’re my angel
Ooo ooo ooo ooo ooo...

======================================================================

---------------------------
This file passed through:
       Absolute Tabs
   http://www.tabs.co.za
---------------------------