Guitar tablature for Shout SA by Various Artists (tabbed by kunuk)
#----------------------------------PLEASE NOTE---------------------------------#
#This file is the author's own work and represents their interpretation of the #
#song. You may only use this file for private study, scholarship, or research. #
#------------------------------------------------------------------------------##

Shout SA
www.shoutSA.com - Artists for a Safer South Africa



A single voice may be strong, but a chorus of voices can become a
powerful weapon for hope and a driving force behind change.

Join your voice with those of these artists, celebrities and others
around the SA and the world. Become the change you wish to see. Visit
shoutSA.com, comment on their Facebook page, write a letter to your
local politician, raise your voice, sing your song, dance your dance,
do something meaningful to you – just be sure your voice is heard!

ARTISTS & CELEBS: Albert Frost, Alex Jay, Arno Carstens, Baby Jake,
Bezwana, Danny K, Darren “Wackhead” Simpson, DJ Fresh, Ed Jordan,
Elana Afrika, Emmanuel Castis, Freshly Ground, Gang of Instrumentals,
Gift Gwe , HHP, Heinz Winkler, Hugh Masekela, In Cha, Jacques Terre’
Blanche, Jae, Jamali, Jeremy Mansfield, Joey Rasdien, John Robbie, KB,
Kabelo, Karen Zoid, Kerishnie Naiker, Kurt Darren, Kwela Tebza, Leanne
Manas, Lee Ann Liebengerg, Lira, Louise Carver, Loyiso, Mark Pilgrim,
MXO, NKD, Nonhle Thema, Obita, Pabi Maloi, The Parlotones, Prime
Circle, Proverb, Rabecca Malope, Redi Direko, RJ Benjamin, Sharleen
Surtie Richards, Siphokazi, Skwatta Kamp, Sophie Ndaba, The Soweto
Gospel Choir, Steve Hofmeyr, Tamara Dey and Flash Republic, Tasha
Baxter, Vannessa Carrera, Wafeeq, Watershed and Yvonne Chaka Chaka.

This song is not in the easiest key to play unless you are comfortable
with bar-chords.  If you prefer, you could put a capo on the 3rd fret
and play the chords on the right. I have included this easier option
in parenthesise throughout the song.  To accommodate those using a
capo, I have transcribed all the instrumental parts so that no notes
fall below the 3rd fret.

Here are the chords used in the song for quick reference:
       Bb      C       Gm          G       A       Em
e:-----1-------3-------3-----|-----3-------0-------0-----|
B:-----3-------5-------3-----|-----0-------1-------0-----|
G:-----3-------5-------3-----|-----0-------2-------0-----|
D:-----3-------5-------5-----|-----0-------2-------2-----|
A:-----1-------3-------5-----|-----2-------0-------2-----|
E:---------------------3-----|-----3---------------0-----|

Have fun! Please let me know if there any changes/suggestions you have
to make the tab better,
Your Friendly Neighbourhood Kunuk – kunuk@rocketmail.com

======================================================================

INTRO/CHORUS:
Gm(Em)         Bb(G)
Shout, shout!  Let it all out!
C(A)
These are the things I can do without
     Gm(Em)
Come on

e:-------------------|
B:-------------------|
G:-------------------|
D:-3-5-5-5-5-5~~~----|
A:-------------------|
E:-------------------|

    Bb(G)               Gm(Em)
I'm talking to you, come on!

e:--------------------|
B:--------------------|
G:---5-7---5-3--------|
D:-5-----------5~~~---|
A:--------------------|
E:--------------------|

Gm(Em)         Bb(G)
Shout, shout!  Let it all out!
C(A)
These are the things I can do without
     Gm(Em)
Come on.  [Come on. Come on. Come on.]
    Bb(G)                Gm(Em)
I'm talking to you, come on!
[I’m talking to you, come on. Come on.  Come on. Come on. Come on.]

e:----------------------------|
B:----------------------------|
G:-----3-----3-------3-----3--|
D:-5-3---5-3-----5-3---5-3----|
A:----------------------------|
E:----------------------------|


VERSE1:
-There is a horn in the background playing the following quietly
behind the lyrics
e:--------------------------------|--------------------------------|
B:-------3-3-------------3-3------|-------3-3-------------3-3------|
G:-5-3-5-----5-3---5-3-5-----5-3--|-5-3-5-----5-3---5-3-5-----5-3--|
D:--------------------------------|--------------------------------|
A:--------------------------------|--------------------------------|
E:--------------------------------|--------------------------------|

-You could also opt to playing the chords to support the lyrics

   Bb(G)                                C(A)   
In violent times, you shouldn't have to sell your soul
   Bb(G)                                C(A)   
In black and white; they really, really ought to know
      Bb(G)                               C(A)   
Those one track minds that took you for a working boy
     Bb(G)                               C(A)   
Kiss them goodbye, you shouldn't have to jump for joy

e:-------------------------------------|
B:-------------------------------------|
G:-------------------------------------|
D:-------------------3-----------------|
A:-5-5-5-5--5-5-5-5----5-5-5--5-5-5-5--|
E:-------------------------------------|

    C(A)
You shouldn't have to shout for joy


CHORUS:
Gm(Em)         Bb(G)
Shout, shout!  Let it all out! [Would you let it all out]
C(A)
These are the things I can do without [I can do without]
     Gm(Em)   Bb(G)                Gm(A)
Come on.  I'm talking to you, come on!

e:----------------------------|
B:----------------------------|
G:-----3-----3-------3-----3--|
D:-5-3---5-3-----5-3---5-3----|
A:----------------------------|
E:----------------------------|

Gm(Em)         Bb(G)
Shout, shout!  Let it all out! [Would you let it all out]
C(A)
These are the things I can do without [I can do without]
     Gm(Em)   Bb(G)                Gm(A)
Come on.  I'm talking to you, come on!
[Come on. Come on. Come on. Come on]

e:----------------------------|
B:----------------------------|
G:-----3-----3-------3-----3--|
D:-5-3---5-3-----5-3---5-3----|
A:----------------------------|
E:----------------------------|


VERSE2:
-There is a horn in the background playing the following quietly
behind the lyrics
e:--------------------------------|--------------------------------|
B:-------3-3-------------3-3------|-------3-3-------------3-3------|
G:-5-3-5-----5-3---5-3-5-----5-3--|-5-3-5-----5-3---5-3-5-----5-3--|
D:--------------------------------|--------------------------------|
A:--------------------------------|--------------------------------|
E:--------------------------------|--------------------------------|

-You could also opt to playing the chords to support the lyrics

     Bb(G)                            C(A)
They gave you life, and in return you gave them hell
   Bb(G)                          C(A)
As cold as ice, I hope we live to tell the tale
  C(A)
I hope we live to tell the tale [I hope will live to tell the tale]


CHORUS:
Gm(Em)                         Bb(G)
Shout, shout! [Shout, shout!] Let it all out! [Let it all out!]
C (A)
These are the things I can do without [Do without]
     Gm(Em)                     Bb(G)                Gm(Em)
Come on [Come on. Come on] I'm talking to you, come on!

e:----------------------------|
B:----------------------------|
G:-----3-----3-------3-----3--|
D:-5-3---5-3-----5-3---5-3----|
A:----------------------------|
E:----------------------------|

Gm(Em)           Bb(G)
Shout, shout!  Let it all out!
[I wanna shout, I wanna shout, I wanna scream and let it out]
C(A)
These are the things I can do without [I can do without]
     Gm(Em)          
Come on  [You talking to me? ]
    Bb(G)                Gm(Em)
I'm talking to you, come on!

e:----------------------------|
B:----------------------------|
G:-----3-----3-------3-----3--|
D:-5-3---5-3-----5-3---5-3----|
A:----------------------------|
E:----------------------------|


BRIDGE/RAP SECTION:
-This pattern plays in the background behind the rap. The ‘h’ means a
hammer on...basically pluck the string, then ‘hammer on’ your finger
to the eighth fret. It gives a rapid note change
e:--------------------------------|--------------------------------|
B:--------------------------------|--------------------------------|
G:-----3---------------3----------|-----3---------------3----------|
D:-5-3---5-3-5h8---5-3---5-3-5h8--|-5-3---5-3-5h8---5-3---5-3-5h8--|
A:--------------------------------|--------------------------------|
E:--------------------------------|--------------------------------|

I’m talking to those who really wanna listen
I’m talking to those who wanna learn something
I’m talking to those who wanna make a difference
I’m talking to those who are sick and tired of being sick and tired

|HHP, I know you are saying something cool...you sound awesome...but|
|I have no clue what you’re saying                                  |
|If someone knows the lyrics that go here and possibly a translation|
|please let me know so I can update the tab and give you a shout    |

-The background pattern changes here
e:-------------------------------|-------------------------------|
B:-------------------------------|-------------------------------|
G:-------3-3-------------3-3-----|-------3-3-------------3-3-----|
D:-5-3-5-----5-3---5-3-5-----5-3-|-5-3-5-----5-3---5-3-5-----5-3-|
A:-------------------------------|-------------------------------|
E:-------------------------------|-------------------------------|

I started counting the amount of violent lives we lost over violent
crimes and I was astounded

No more tears, three kids left without a father figure

Lucky Dube (The music stops for a moment of silence to show respect)
Can’t believe you’re deceased
Rasta’s never die brother rest in peace
We might all look like men, but some are beasts
We can’t let them win, we can’t accept defeat


PRE-CHORUS:
-There is a horn in the background playing the following quietly
behind the lyrics
e:--------------------------------|--------------------------------|
B:-------3-3-------------3-3------|-------3-3-------------3-3------|
G:-5-3-5-----5-3---5-3-5-----5-3--|-5-3-5-----5-3---5-3-5-----5-3--|
D:--------------------------------|--------------------------------|
A:--------------------------------|--------------------------------|
E:--------------------------------|--------------------------------|

Bb(G)           C(A)
And when you've taken down your guard
   Bb(G)                                        C(A)
If I could change your mind, I'd really love to break your heart
[I'd really love to break your heart]


CHORUS/OUTRO:
                                       Gm(Em)        Bb(G)
[I’d really like to break your heart] Shout, shout!  Let it all out
                                      C(A)
[I’d really like to break your heart] These are the things I can do
                                                            without
     Gm(Em)   Bb(G)                Gm(Em)
Come on.  I'm talking to you, come on

e:----------------------------|
B:----------------------------|
G:-----3-----3-------3-----3--|
D:-5-3---5-3-----5-3---5-3----|
A:----------------------------|
E:----------------------------|

Gm(Em)           Bb(G)
Shout, shout!  Let it all out
C(A)
These are the things I can do without
     Gm(Em)   Bb(G)                  Gm(Em)
Come on.  I'm talking to you so come on.

======================================================================

---------------------------
This file passed through:
       Absolute Tabs
   http://www.tabs.co.za
---------------------------