Guitar tablature for Gewonde Standbeeld by Straatligkinders (tabbed by kunuk)
#----------------------------------PLEASE NOTE---------------------------------#
#This file is the author's own work and represents their interpretation of the #
#song. You may only use this file for private study, scholarship, or research. #
#------------------------------------------------------------------------------##

Gewonde Standbeeld - Straatligkinders
[Injured Statue]
Album: Sweef Soos 'n Vuishou



The way this tab is set up: the rhythm guitar plays the chords above
the tabs, and the second guitar plays the tabs.  If it’s just you
playing, I recommend playing the tabs through the verses for a bit of
a challenge. Good luck with the solo!

Here are the chords used in the song for quick reference:
        A5     B5    C5     D5     E5    F#5     G5     
e:-------------------------------------------------------
B:-------------------------------------------------------
G:-------------6------5------7------9--------------------
D:------7------6------5------7------9------4------5------
A:------7------4------3------5------7------4------5------
E:------5----------------------------------2------3------

Have fun! Please let me know if there any changes/suggestions you have
to make the tab better,
Your Friendly Neighbourhood Kunuk – kunuk@rocketmail.com

======================================================================

INTRO:
-The song opens with this line, then repeats during the first verse
e:-3-2--------------|-3-2--------------|-3-2--------------|
B:-----3----5-5-0---|-----3----5-5-0---|-----3----5-5-0---|
G:------------------|------------------|------------------|
D:------------------|------------------|------------------|
A:------------------|------------------|------------------|
E:------------------|------------------|------------------|


VERS 1:
D5                   C#5        B5   F#5
'n Standbeeld in die middel van nêrens,
D5             C#5      C#5  D5
opgerig vir 'n held van êrens,
D5            C#5           B5  F#5
om te wys dat daar iets nog oor is
D5                 C#5     C#5  D5
wat dit die moeite werd maak om nou
D5 D5  E5  F#5  D5   A5
te glo dat daar hoop is,
C#5 C#5 C#5 C#5 C#5 D5
sonder al die   vrese
D5  D5   E5 F#5  D5  A5
en in my diepste wense
C#5 C#5 C#5 C#5 C#5 D5
staan Nelson se leuse.


KOOR:
F#5   F#5 F#5 E5 F#5 D
Sweef soos 'n   vuishou.
F#5  F#5 F#5  E5 F#5 D5    
Veg sonder  ophou   nou
D5   D5   E5 F#5    D5  A5
vir die wat goed en reg is.
D5  D5  D5  D5  D5    D5   D5
Sonder dat daar bloed moet vloei,
F#5 F#5  F#5  E5 F#5 D5    
sal daar versoening  kom,
F#5 F#5  F#5 E5 F#5 D5
sal daar genesing   kom.
D5  D5  E5  F#5 D5 D5   C#5 C#5   D5
Jy moet net bereid wees om gewond te word.


VERS 2:
-This 4-bar phrase repeats over the second verse. The refers to a
slide; so strum the first note, then slide to the next two
  D5                         D5           E5 D5   F#5   
e:-------------------------|-------------------------|
B:-------------------------|-------------------------|
G:-------------------------|-------------------------|
D:-12-12-12-12-12-12-12-12-|-12-12-12-12-14-12-12-16-|
A:-------------------------|-------------------------|
E:-------------------------|-------------------------|
  D5                         D5          E5 F#5 E5 D5
e:-------------------------|-------------------------|
B:-------------------------|-------------------------|
G:-------------------------|-------------------------|
D:-12-12-12-12-12-12-12-12-|-12-12-12-12-14S16S14-12-|
A:-------------------------|-------------------------|
E:-------------------------|-------------------------|

D5         C#5    B5   F#5
Die pyn en lyding waardeur
D5      C#5    C#5  D5
hy moes gaan om ons te
D5    C#5      B5    F#5
bring waar ons vandag is.
D5       C#5         C#5       D5
'n Groot deel van sy lewe is gesteel,
D5   D5  E5   F#5  D5    A5
maar dit keer hom steeds nie,
C#5 C#5   C#5  C#5   C#5  D5
om uit te stap met liefde in
D5  D5  E5    F#5     D5   A5
sy hart en 'n vuis in die lig,
C#5 C#5 C#5 C#5 C#5 D5
leef hy sy      leuse.


KOOR:
F#5   F#5 F#5 E5 F#5 D
Sweef soos 'n   vuishou.
F#5  F#5 F#5  E5 F#5 D5    
Veg sonder  ophou   nou
D5   D5   E5 F#5    D5  A5
vir die wat goed en reg is.
D5  D5  D5  D5  D5    D5   D5
Sonder dat daar bloed moet vloei,
F#5 F#5  F#5  E5 F#5 D5    
sal daar versoening  kom,
F#5 F#5  F#5 E5 F#5 D5
sal daar genesing   kom.
D5  D5  E5  F#5 D5 D5   C#5 C#5   D5
Jy moet net bereid wees om gewond te word.


GUITAR SOLO:
e:---------------10----------|---------------10----------|
B:---------10-12----12-10----|---------10-12----12-12----|
G:-11---12----------------12-|-11---12----------------12-|
D:---------------------------|---------------------------|
A:---------------------------|---------------------------|
E:---------------------------|---------------------------|

e:---------------10----------|---------------10----------|
B:---------10-12----12-10----|---------10-12----12-12----|
G:-11---12----------------12-|-11---12----------------12-|
D:---------------------------|---------------------------|
A:---------------------------|---------------------------|
E:---------------------------|---------------------------|

e:---------------------------|---------------------------|
B:---------------------------|---------------------------|
G:---------------------------|---------------------------|
D:-12-12-12-11-11-11-12~~~---|-12-12-12-11-11-11-14~~~---|
A:---------------------------|---------------------------|
E:---------------------------|---------------------------|

e:-------------------------------------------------------|
B:-------------------------------------------------------|
G:-------------------11----------11----------11----------|
D:-------12-12-11-12----12-11-12----12-11-12----12-12-14-|
A:-------------------------------------------------------|
E:-------------------------------------------------------|

e:-------------------------------------------------------|
B:-------------------------------------------------------|
G:-------------------11----------11----------11----------|
D:-------12-12-11-12----12-11-12----12-11-12----12-12-12-|
A:-------------------------------------------------------|
E:-------------------------------------------------------|

e:---------------------------|---------------------------|
B:---------------------------|---------------------------|
G:---------------------------|---------------------------|
D:-12-12-12-11-11-11-12~~~---|-12-12-12-11-11-11-14~~~---|
A:---------------------------|---------------------------|
E:---------------------------|---------------------------|


KOOR:
F#5   F#5 F#5 E5 F#5 D
Sweef soos 'n   vuishou.
F#5  F#5 F#5  E5 F#5 D5    
Veg sonder  ophou   nou
D5   D5   E5 F#5    D5  A5
vir die wat goed en reg is.
D5  D5  D5  D5  D5    D5   D5
Sonder dat daar bloed moet vloei,
F#5 F#5  F#5  E5 F#5 D5    
sal daar versoening  kom,
F#5 F#5  F#5 E5 F#5 D5
sal daar genesing   kom.
D5  D5  E5  F#5 D5 D5   C#5 C#5   D5
Jy moet net bereid wees om gewond te word.


OUTRO:
  D5
e:----------------------|----------------------|
B:----------------------|----------------------|
G:----------------------|----------------------|
D:-12-12-14-12-16-12-14-|-12-12-14-12-16-12-14-|
A:----------------------|----------------------|
E:----------------------|----------------------|
En jy leer my van liefde.

  C#5
e:----------------------|----------------------|
B:----------------------|----------------------|
G:----------------------|----------------------|
D:-11-11-12-11-14-11-12-|-11-11-12-11-14-11-12-|
A:----------------------|----------------------|
E:----------------------|----------------------|
En jy leer my van vrede.

  D5
e:----------------------|---------------------------||
B:----------------------|------------------------14-||
G:----------------------|------------------------14-||
D:-12-12-14-12-16-12-14-|-12-12-14-12-16-12-14---12-||
A:----------------------|---------------------------||
E:----------------------|---------------------------||
Jou vingerafdruk is op my hart.


======================================================================
Here is an English translation for all of those people out there like
myself, who dig the music, but are new to the language:
======================================================================

A statue in the middle of nowhere;
erected for a hero somewhere,
to show that something is left
it worthwhile to make now
to believe that there is hope;
without all the fears
and my deepest wishes
stands Nelson's motto.

Floats like a fist/punch.
Fight without ceasing
for those who are good and right.
Without that blood must flow,
there will be reconciliation,
there will come healing.
You just have to be prepared to be wounded.

The pain and suffering he had to go
to bring us to where we are today.
A large part of his life was stolen,
but it is still not time to step out with love in
his heart and a fist in the light,
he lived his motto.

Floats like a fist/punch.
Fight without ceasing
for those who are good and right.
Without that blood must flow,
there will be reconciliation,
there will come healing.
You just have to be prepared to be wounded.

And you teach me to love.
And you taught me peace.
Your fingerprint is on my heart.

======================================================================

---------------------------
This file passed through:
       Absolute Tabs
   http://www.tabs.co.za
---------------------------