Guitar tablature for Everything There Is by Downfall (tabbed by Nevay)
#----------------------------------PLEASE NOTE---------------------------------#
#This file is the author's own work and represents their interpretation of the #
#song. You may only use this file for private study, scholarship, or research. #
#------------------------------------------------------------------------------##

Standard E tuning (drop-D)

VERSE (gt1 clean) x6
3|-----2---2h4---------4---5-----5-------7---5-------------5---4-----|
4|---2---------2-----2-------2---------5---------9-------3---------5-|
5|-0-----0-------3-------3-----3-----5-----5---5-----3-------3---3---|
6|-------------------------------------------------------------------|

CHORUS (gt1+gt2 dist) x2
3|-2---2-2h4-4m-5---5-5-4------------------------------|
4|-2---2-2---2m-2---2-2-2----5---5-5h7-0---3---3-3h5-3-|
5|-0---0-0---0m-3---3-3-3----5---5-5h7-0---3---3-3h5-3-|
6|---------------------------5---5-5h7-0---3---3-3h5-3-|
                                       .
VERSE x4
CHORUS x4
BRIDGE 1 (gt1+2 dist)
4|-2--2-2-2-3---|   |-2--2-2-2-5---5-5h7-7-|
5|-2--2-2-2-3---|   |-2--2-2-2-5---5-5h7-7-|
6|-2--2-2-2-3---| x3|-2--2-2-2-5---5-5h7-7-|
        .                  .
BRIDGE 2 (dist)
gt2
3|-2---2-2h4-4m-5---5-5-4------------------------------|
4|-2---2-2---2m-2---2-2-2----5---5-5h7-0---3---3-3h5-3-|
5|-0---0-0---0m-3---3-3-3----5---5-5h7-0---3---3-3h5-3-|
6|---------------------------5---5-5h7-0---3---3-3h5-3-| x4
                                       .
gt1
1|---------------------------17--17-15--------------|
2|-10--10-10h12-10-13--13-12-----------17--17-15----|
3|-----------------------------------------------16-|

1|-----------------------------------------------------------|
2|-10--10-10h12-10-13--13-12-----------------13--13-13h15----|
3|---------------------------12--12-12h14p12--------------12-|

1|---------------------------17--17-15--------------|
2|-10--10-10h12-10-13--13-12-----------17--17-15----|
3|-----------------------------------------------16-|

1|--------------------------------------------------------|
2|-10--10-10h12-10-13--13-12------------------------------|
3|---------------------------12--12-12h14p12-10--10-10h12-|

CHORUS
gt1 (x2) + gt2
3|-2---2-2h4-4m-5---5-5-4------------------------------|
4|-2---2-2---2m-2---2-2-2----5---5-5h7-0---3---3-3h5-3-|
5|-0---0-0---0m-3---3-3-3----5---5-5h7-0---3---3-3h5-3-|
6|---------------------------5---5-5h7-0---3---3-3h5-3-| x4
                                       .
(gt1 falls in after 2nd chorus riff)
1|---------------------------17--17-15--------------|
2|-10--10-10h12-10-13--13-12-----------17--17-15----|
3|-----------------------------------------------16-|

1|-----------------------------------------------------------|
2|-10--10-10h12-10-13--13-12-----------------13--13-13h15----|
3|---------------------------12--12-12h14p12--------------12-|

1|---------------------------17--17-15--------------|
2|-10--10-10h12-10-13--13-12-----------17--17-15----|
3|-----------------------------------------------16-|

1|-------------------------------------------------------------------|
2|-10--10-10h12-10-13--13-12-----------------------------------------|
3|---------------------------12--12-12h14p12-10--10-10h12-(let ring)-|

OUTRO (gt1 clean)x2
3|-----2---2h4---------4---5-----5-------7---5-------------5---4-----|
4|---2---------2-----2-------2---------5---------9-------3---------5-|
5|-0-----0-------3-------3-----3-----5-----5---5-----3-------3---3---|
6|-------------------------------------------------------------------|

---------------------------
This file passed through:
       Absolute Tabs
   http://www.tabs.co.za
---------------------------