Bass tablature for Consider Me by Prime Circle (tabbed by kunuk)
#----------------------------------PLEASE NOTE---------------------------------#
#This file is the author's own work and represents their interpretation of the #
#song. You may only use this file for private study, scholarship, or research. #
#------------------------------------------------------------------------------##

Consider Me - Prime Circle  (Tab 2of2)
Album:  All or Nothing
Written for Bass Guitar or Second Guitar




I have two tabs for this song since there was waaaaaaaaaaaaaaaaaaaaaay
too much to put into a single tab. This tab contains the bass line
that provides a solid backbone and really drives the song.  It focuses
on straight quarter notes with a bit of play after each second bar.  
It repeats throughout the majority of the song with some variation
during the chorus and bridge sections.

The other tab is written for the lead guitar and contains the chord
progressions, fills and solo.

With two tabs, you can print this one for yourself, the other one for
your buddy and kick it hard from the start.

Have fun! Please let me know if there any changes/suggestions you have
to make the tab better,
Your Friendly Neighbourhood Kunuk – kunuk@rocketmail.com

======================================================================

INTRO:
G:-------------|----------------|-------------|----------------|
D:-------------|----------------|-------------|----------------|
A:-5--5--5--5--|-5--5--5---5-4--|-5--5--5--5--|-5--5--5---5-4--|
E:-------------|----------------|-------------|----------------|

G:-------------|----------------|-------------|----------------|
D:-------------|----------------|-------------|----------------|
A:-------------|----------------|-------------|----------------|
E:-7--7--7--7--|-7--7--7---7-6--|-5--5--5--5--|-5--5--5---5-4--|


VERSE:
G:-------------|----------------|-------------|----------------|
D:-------------|----------------|-------------|----------------|
A:-5--5--5--5--|-5--5--5---5-4--|-5--5--5--5--|-5--5--5---5-4--|
E:-------------|----------------|-------------|----------------|
  Do you know who you’re friends are and what they say

G:-------------|----------------|-------------|----------------|
D:-------------|----------------|-------------|----------------|
A:-------------|----------------|-------------|----------------|
E:-7--7--7--7--|-7--7--7---7-6--|-5--5--5--5--|-5--5--5---5-4--|
  Do you know what’s coming round again and again?


G:-------------|----------------|-------------|----------------|
D:-------------|----------------|-------------|----------------|
A:-5--5--5--5--|-5--5--5---5-4--|-5--5--5--5--|-5--5--5---5-4--|
E:-------------|----------------|-------------|----------------|
  Do you know if you’re acting like someone else?

G:-------------|----------------|-------------|----------------|
D:-------------|----------------|-------------|----------------|
A:-------------|----------------|-------------|----------------|
E:-7--7--7--7--|-7--7--7---7-6--|-5--5--5--5--|-5--5--5---5-4--|
  Do you know if it’s dangerous or the safest bet?

G:-------------|----------------|-------------|----------------|
D:-------------|----------------|-------------|----------------|
A:-5--5--5--5--|-5--5--5---5-4--|-5--5--5--5--|-5--5--5---5-4--|
E:-------------|----------------|-------------|----------------|
  Cause I’m here waiting for

G:-------------|----------------|-------------|----------------|
D:-------------|----------------|-------------|----------------|
A:-------------|----------------|-------------|----------------|
E:-7--7--7--7--|-7--7--7---7-6--|-5--5--5--5--|-5--5--5---5-4--|
  I’m here changing more


CHORUS:
G:-------------|----------------|-------------|----------------|
D:-------------|----------------|-------------|----------------|
A:-5--5--5--5--|-5--5--5---5-4--|-------------|----------------|
E:-------------|----------------|-7--7--7--7--|-7--7--7---7-6--|
  Consider me,                    consider you,

G:-------------|----------------|-------------|----------------|
D:-------------|----------------|-------------|----------------|
A:-5--5--5--5--|-5--5--5---5-4--|-------------|----------------|
E:-------------|----------------|-5--5--5--5--|-5--5--5---5-4--|                 
  consider the world        And what we put it through


VERSE:
G:-------------|----------------|-------------|----------------|
D:-------------|----------------|-------------|----------------|
A:-5--5--5--5--|-5--5--5---5-4--|-5--5--5--5--|-5--5--5---5-4--|
E:-------------|----------------|-------------|----------------|
  Is it always the same or just moving along?

G:-------------|----------------|-------------|----------------|
D:-------------|----------------|-------------|----------------|
A:-------------|----------------|-------------|----------------|
E:-7--7--7--7--|-7--7--7---7-6--|-5--5--5--5--|-5--5--5---5-4--|
  Do you have to put that face up to act strong?

G:-------------|----------------|-------------|----------------|
D:-------------|----------------|-------------|----------------|
A:-5--5--5--5--|-5--5--5---5-4--|-5--5--5--5--|-5--5--5---5-4--|
E:-------------|----------------|-------------|----------------|
  And I can’t take anymore,

G:-------------|----------------|-------------|----------------|
D:-------------|----------------|-------------|----------------|
A:-------------|----------------|-------------|----------------|
E:-7--7--7--7--|-7--7--7---7-6--|-5--5--5--5--|-5--5--5---5-4--|
  But I’m here, I’m here, I’m here

CHORUS:
G:-------------|----------------|-------------|----------------|
D:-------------|----------------|-------------|----------------|
A:-5--5--5--5--|-5--5--5---5----|-------------|----------------|
E:-------------|----------------|-7--7--7--7--|-7--7--7---7----|
  Consider me,                    consider you,

G:-------------|----------------|-------------|----------------|
D:-------------|----------------|-------------|----------------|
A:-5--5--5--5--|-5--5--5---5----|-------------|----------------|
E:-------------|----------------|-5--5--5--5--|-5--5--5---5----|       
  consider the world          And what we put it through

G:-------------|----------------|-------------|----------------|
D:-------------|----------------|-------------|----------------|
A:-5--5--5--5--|-5--5--5---5----|-------------|----------------|
E:-------------|----------------|-7--7--7--7--|-7--7--7---7----|
  Consider me,                    consider you,

G:-------------|----------------|-------------|----------------|
D:-------------|----------------|-------------|----------------|
A:-5--5--5--5--|-5--5--5---5----|-------------|----------------|
E:-------------|----------------|-5--5--5--5--|-5--5--5---5----|      
  consider the world          And what we put it through


BRIDGE: (Guitar Solo)
G:-------------|----------------|-------------|----------------|
D:-------------|----------------|-------------|----------------|
A:-5-----------|-5--------------|-5-----------|-5--------------|
E:-------------|----------------|-------------|----------------|
  I’m here waiting for, something better just to come along

G:-------------|----------------|-------------|----------------|
D:-------------|----------------|-------------|----------------|
A:-------------|----------------|-------------|----------------|
E:-7-----------|-7--------------|-5-----------|-5--------------|
  I’m here waiting all this time,            To change its mind
  waiting for the world                         

G:-------------|----------------|-------------|----------------|
D:-------------|----------------|-------------|----------------|
A:-5-----------|-5--------------|-------------|----------------|
E:-------------|----------------|-7-----------|-7--------------|
I’m here waiting for something better to come along

G:-------------|----------------|-------------|----------------|
D:-------------|----------------|-------------|----------------|
A:-5-----------|-5--------------|-------------|----------------|
E:-------------|----------------|-5-----------|-5--------------|     
I’ll take a chance on you, you take a chance on me


CHORUS: (Section repeats and vocals overlap)
G:-------------|----------------|-------------|----------------|
D:-------------|----------------|-------------|----------------|
A:-5--5--5--5--|-5--5--5---5----|-------------|----------------|
E:-------------|----------------|-7--7--7--7--|-7--7--7---7----|
  Consider me,                    consider you,

G:-------------|----------------|-------------|----------------|
D:-------------|----------------|-------------|----------------|
A:-5--5--5--5--|-5--5--5---5----|-------------|----------------|
E:-------------|----------------|-5--5--5--5--|-5--5--5---5----|     
  consider the world          And what we put it through

G:-------------|----------------|-------------|----------------|
D:-------------|----------------|-------------|----------------|
A:-5--5--5--5--|-5--5--5---5-4--|-5--5--5--5--|-5--5--5---5-4--|
E:-------------|----------------|-------------|----------------|
I’m here waiting for, something better just to come along

G:-------------|----------------|-------------|----------------|
D:-------------|----------------|-------------|----------------|
A:-------------|----------------|-------------|----------------|
E:-7--7--7--7--|-7--7--7---7-6--|-5--5--5--5--|-5--5--5---5-4--|
  I’m here waiting all this time,            To change its mind
  waiting for the world                         


OUTRO:  (Repeat the following to fade...)
G:-------------|----------------|-------------|----------------||
D:-------------|----------------|-------------|----------------||
A:-5--5--5--5--|-5--5--5---5-4--|-5--5--5--5--|-5--5--5---5-4--||
E:-------------|----------------|-------------|----------------||

======================================================================

---------------------------
This file passed through:
       Absolute Tabs
   http://www.tabs.co.za
---------------------------