Guitar tablature for Bones by Robbie Wessels
#----------------------------------PLEASE NOTE---------------------------------#
#This file is the author's own work and represents their interpretation of the #
#song. You may only use this file for private study, scholarship, or research. #
#------------------------------------------------------------------------------##

     SONG: Bones
   ARTIST: Robbie Wessels
    ALBUM: My Vissermanvriend se pa

     TYPE: Guitar Tablature
TABBED BY: Marnus du Plessis & Jaco Kruger

Intro: x2

e:--0--0--0--3--0--6----0--0--0--3--0--6---
b:-----------------------------------------
g:-----------------------------------------
d:-----------------------------------------
a:-----------------------------------------
e:--0--0--0--3--0--6----0--0--0--3--0--6---


e:--0--0--0--5--0--8----0--0--0--5--0--8----0--0--0--2--2--2---
b:-------------------------------------------------------------
g:-------------------------------------------------------------
d:-------------------------------------------------------------
a:-------------------------------------------------------------
e:--0--0--0--5--0--8----0--0--0--5--0--8----0--0--0--2--2--2---


Verse:

e:--0--0--0--3--0--6----0--0--0--3--0--6----0--0--0--3--0--6----0--0--0--2--2--2---
b:---------------------------------------------------------------------------------
g:---------------------------------------------------------------------------------
d:---------------------------------------------------------------------------------
a:---------------------------------------------------------------------------------
e:--0--0--0--3--0--6----0--0--0--3--0--6----0--0--0--3--0--6----0--0--0--2--2--2---


e:--0--0--0--5--0--8----0--0--0--5--0--8----0--0--0--5--0--8----0--0--0--4--4--4---
b:---------------------------------------------------------------------------------
g:---------------------------------------------------------------------------------
d:---------------------------------------------------------------------------------
a:---------------------------------------------------------------------------------
e:--0--0--0--5--0--8----0--0--0--5--0--8----0--0--0--5--0--8----0--0--0--4--4--4---

Ek was nog jonk en rein, maar nou't dit als verdwyn
Ek's nou verslaaf aan wyn, o al die pyn, pyn, pyn!
O dit het als gebeur, net daardie eerste keer
Toe ek oom tas probeer, dit was net wyn, wyn, wyn!

Koor:

Am           G        D         C
Blou Zambuca, rooiwyn, brandewyn en coke
Am      G            D            C
Amarula, white horse, dry lemon en gin
Am    G  D  C
OBS en whiskey, 'n springbok en mampoer

Ek kon myself nie stop, ek was verslaaf aan dop
My lewer kon nie meer, dit was so seer, seer, seer!
Ek was 'n alkholis, ek het 'n jaar gemis
Ek voel dit in my bors, ek's alwee dors, dors, dors!

Koor:

My ma het haar verbeel, haar kindjie suip te veel
Sy't my van drank verbied, ek wou haar skiet, skiet, skiet!
My bene was al mak, Moe gee my geld vir drank
Ek is gewoond aan loans, my naam is Bones, Bones, Bones!

Koor:
...

 ...Ek's in my MOER!


---------------------------
This file passed through:
       Absolute Tabs
   http://www.tabs.co.za
---------------------------