Bass tablature for Ek En Jy by The Buckfever Underground (tabbed by crumpuppet)
#----------------------------------PLEASE NOTE---------------------------------#
#This file is the author's own work and represents their interpretation of the #
#song. You may only use this file for private study, scholarship, or research. #
#------------------------------------------------------------------------------##

Tab deur Hannes van Zyl

The Buckfever Underground - Ek En Jy



riff 1 - daar is vinnige slides tussen die veranderinge

G|-11-11-11-11-11-11-11-11/18-18-18-18-18-18-18-18\9-9-9-9-9-9-9-9/16-16-16-16-16-16-16-16-|
D|-----------------------------------------------------------------------------------------|
A|-----------------------------------------------------------------------------------------|
E|-----------------------------------------------------------------------------------------|

riff 2 - geen slides hier nie

G|---------------------------------|
D|---------------5-5-5-5-5-5-5-5-5-|
A|-----------9-9-------------------|
E|-7-7-7-7-7-----------------------|


riff 3 (riff 3 is eintlik geen bass nie, maar hierdie is die note as jy saam met die synth wil speel)
G|-------------------------------------------------------------------------|
D|-4-x-x-x-x-x-x-x-11-x-x-x-x-x-x-x-14-x-x-x-x-x-x-x-9-x-x-x-7-x-6-7-6-----|
A|-------------------------------------------------------------------------|
E|-------------------------------------------------------------------------|



volgorde:
---------

riff 1 x5 (0:00 - 0:52)

riff 2 x4 (0:53 - 1:12)

riff 1 x3 (1:13 - 1:43)

riff 2 x4 (1:44 - 2:03)

riff 3 x1 (2:04 - 2:14)

riff 1 x2 (2:15 - 2:34)

riff 2 x9 (2:35 - einde)

---------------------------
This file passed through:
       Absolute Tabs
   http://www.tabs.co.za
---------------------------