Guitar tablature for House party by Tweak
#----------------------------------PLEASE NOTE---------------------------------#
#This file is the author's own work and represents their interpretation of the #
#song. You may only use this file for private study, scholarship, or research. #
#------------------------------------------------------------------------------##

Tweak
House-party
Dirty sanchez and the misfit kids
Tabbed by: David Jones
Tuning: drop D

Ek moet praat en engels omdat ek�lick the dick�(very bad) van afrikaans

Arranged for 1 guitar
                Intro
e-----------8---8--------10---10---------10----12---12-------------------------------------
B-----10-----------10--------------10------------------------------------------------------
G------------------------------------------------------------------------------------------
D------------------------------------------------------------------------------------------ X2
A------------------------------------------------------------------------------------------
D------------------------------------------------------------------------------------------

Intro2/ chorus(YOU WORK OUT THE STRUMMING!!)
e------------------------------------------------------------------------------------------
B------------------------------------------------------------------------------------------
G---------------------------------5--------------------------------------------------------
D-----3-------0---------5-------5---------------------------------------------------------- X2
A-----3-------0---------5-------3----------------------------------------------------------
D-----3-------0---------5------------------------------------------------------------------

verses
e------------------------------------------------------------------------
B------------------------------------5-----------------------------------
G-------------7----5/2---2---3-------3-----------------------------------
D------------------------------------------------------------------------ X8
A------------------------------------------------------------------------
E------------------------------------------------------------------------

Pre-chorus(first time)
e---13--10--10--10--11--11-----------------------------------------------
B------------------------------------------------------------------------
G------------------------------------------------------------------------
D------------------------------------------------------------------------
A------------------------------------------------------------------------
E------------------------------------------------------------------------

second time
e---13----10--10---10----------------------------------------------------
B------------------------------------------------------------------------
G------------------------------------------------------------------------
D------------------------------------------------------------------------
A------------------------------------------------------------------------
E------------------------------------------------------------------------

bridge
e-----------------------------------------------------------
B-----------------------------------------------------------
G-----------------------------------------------------------
D--12---8----7------0---------------------------------------
A--12---8----7------0---------------------------------------
D--12---8----7------0---------------------------------------

Work out the order of play yourself

---------------------------
This file passed through:
       Absolute Tabs
   http://www.tabs.co.za
---------------------------