Guitar tablature for Tot Die Son Uitkim by Van Coke Kartel (tabbed by G3752)
#----------------------------------PLEASE NOTE---------------------------------#
#This file is the author's own work and represents their interpretation of the #
#song. You may only use this file for private study, scholarship, or research. #
#------------------------------------------------------------------------------##

Van Coke kartel - Tot Die Son Uitkom

Vir vrae/Koreksies e-mail my by gabriel3752@gmail.com

Ek sê Ahoy Daar! Ek is op Twitter! So maak 'n plan en volg die man @GabrielRoux3752

Jammer oor die spel vout in die naam

Guitar 1(clean electric)  :Rythm - Standard

Guitar 2(slight overdrive):Lead  - Standard

Guitar 3(clean acoustic)  :      - Standard


Sleutel:
h - Hammer-on
p - Pull-off
b - Bend
r - Release
/ - slide
_____________________________________________________________________________________________

Main riff:
(00:00 - 00:48)
_____________________________________________________________________________________________

e|------------------------------------------------------------|
B|---------0-----------0----------------0-----------0---------|
G|-----6-----6-----6-----6----------6-----6-----6-----6-------|
D|---7---7-------7---7-----7------7---7-------7---7-----7-----|
A|-9-----------8----------------7-----------6-----------------|
E|------------------------------------------------------------|
                                                                    x3
e|------------------------------------------------------------|
B|---------0-----------0------------------------0~------------|
G|-----6-----6-----6-----6----------------------9~-----9------|
D|---7---7-------7---7-----7-----------9--------9~-------6----|
A|-5-----------7-------------7/9-11-12---12-11--7~---7-----7--|
E|------------------------------------------------------------|

_____________________________________________________________________________________________

Chorus:
(00:48 - 01:20)
_____________________________________________________________________________________________

e|--------------2----------------------------0h2----------0-------|
B|--------2-------2------2---------------3------------------------|
G|----------2-------2------2-----------2---2----------2-----2---2-|
D|------4-----4--------------4---4---0--------------2---2-----2---| x3
A|----4----------------4-------4------------------0---------------|
E|--2-------------------------------------------------------------|

e|-------------0-------0--------------------0------0---|
B|---------0-----0-------0--------------0-----0------0-|
G|-----1-----1-----1-------1--------1-----1-----1------|
D|---2---2-----------2-------2----2---2-----------2----|
A|-----------------------------------------------------|
E|-0----------------------------0----------------------|

_____________________________________________________________________________________________

Main Riff:
(01:20 - 02:08)
_____________________________________________________________________________________________

e|------------------------------------------------------------|
B|---------0-----------0----------------0-----------0---------|
G|-----6-----6-----6-----6----------6-----6-----6-----6-------|
D|---7---7-------7---7-----7------7---7-------7---7-----7-----|
A|-9-----------8----------------7-----------6-----------------|
E|------------------------------------------------------------|
                                                                 x3
e|------------------------------------------------------------|
B|---------0-----------0------------------------0~------------|
G|-----6-----6-----6-----6----------------------9~-----9------|
D|---7---7-------7---7-----7-----------9--------9~-------6----|
A|-5-----------7-------------7/9-11-12---12-11--7~---7-----7--|
E|------------------------------------------------------------|

_____________________________________________________________________________________________

Chorus:
(02:08 - 02:40)
_____________________________________________________________________________________________

Guitar 1:

e|--------------2----------------------------0h2----------0-------|
B|--------2-------2------2---------------3------------------------|
G|----------2-------2------2-----------2---2----------2-----2---2-|
D|------4-----4--------------4---4---0--------------2---2-----2---| x3
A|----4----------------4-------4------------------0---------------|
E|--2-------------------------------------------------------------|


e|-------------0-------0--------------------0------0---|
B|---------0-----0-------0--------------0-----0------0-|
G|-----1-----1-----1-------1--------1-----1-----1------|
D|---2---2-----------2-------2----2---2-----------2----|
A|-----------------------------------------------------|
E|-0----------------------------0----------------------|


Guitar 2:

e|---5-----5-----5---5-----5-----5---4----4-----4--|
B|-----5-----5---------5-----5---------5----5------|
G|-6-----6-----6---6-----6-----6---6-----6----6----|
D|-------------------------------------------------| x3
A|-------------------------------------------------|
E|-------------------------------------------------|


e|-4-----4-----5-----5-----5-----5-------|
B|---5-----5-----5-----5-----5-----------|
G|-----4-----4-----4-----4-----4---------|
D|---------------------------------------| x2
A|---------------------------------------|
E|---------------------------------------|


_____________________________________________________________________________________________

Solo:
(02:40 - 03:12)
_____________________________________________________________________________________________

Guitar 1: repeat main riff:

e|------------------------------------------------------------|
B|---------0-----------0----------------0-----------0---------|
G|-----6-----6-----6-----6----------6-----6-----6-----6-------|
D|---7---7-------7---7-----7------7---7-------7---7-----7-----|
A|-9-----------8----------------7-----------6-----------------|
E|------------------------------------------------------------|


e|------------------------------------------------------------|
B|---------0-----------0------------------------0~------------|
G|-----6-----6-----6-----6----------------------9~-----9------|
D|---7---7-------7---7-----7-----------9--------9~-------6----|
A|-5-----------7-------------7/9-11-12---12-11--7~---7-----7--|
E|------------------------------------------------------------|

Guitar 2: Plays the solo and shit

e|----------------------------------------------------------------21-19-17-----------------|
B|-------------------------------------------------------------------------21-19-17-17-----|
G|-----------------9---------------------------14\13---------------------------------------|
D|-----7-7~---9/11---11--9\7-------------14-16-------14------------------------------------|
A|-7/9-----------------------9~----14h16----------------14/16--14--------------------------|
E|-----------------------------------------------------------------------------------------|

e|-----------------------------------------14----------------------------------------|
B|-14--------------------------------17b19----17-14-------16b17-14-------------------|
G|-16b18r16p14----14-16-14-----17-------------------16-14----------16p14-------------|
D|-------------16----------/18----16-------------------------------------16p14-------|
A|-----------------------------------------------------------------------------------|
E|-----------------------------------------------------------------------------------|

e|------------------------------------------------------------------|
B|------------------------------------------------------------------|
G|16b17-14----------------------------------------------------------|
D|---------16-14---------16b17-14---------------------------14------|
A|---------------16-14-------------16-15-14~--12-------14/16---16---|
E|-----------------------------------------------14-12--------------|

e|----------------------------------|
B|----------------10-12-10-9--------|
G|-------------11------------9~-----|
D|-------7--------------------------|
A|-----7---7-9----------------------|
E|--/9------------------------------|
_____________________________________________________________________________________________

Main riff:
(03:12 - 03:28)
_____________________________________________________________________________________________

e|------------------------------------------------------------|
B|---------0-----------0----------------0-----------0---------|
G|-----6-----6-----6-----6----------6-----6-----6-----6-------|
D|---7---7-------7---7-----7------7---7-------7---7-----7-----|
A|-9-----------8----------------7-----------6-----------------|
E|------------------------------------------------------------|


e|------------------------------------------------------------|
B|---------0-----------0------------------------0~------------|
G|-----6-----6-----6-----6----------------------9~-----9------|
D|---7---7-------7---7-----7-----------9--------9~-------6----|
A|-5-----------7-------------7/9-11-12---12-11--7~---7-----7--|
E|------------------------------------------------------------|

_____________________________________________________________________________________________

Chorus:
(03:28 - 04:32)
_____________________________________________________________________________________________

Guitar 1:

e|--------------2----------------------------0h2----------0-------|
B|--------2-------2------2---------------3------------------------|
G|----------2-------2------2-----------2---2----------2-----2---2-|
D|------4-----4--------------4---4---0--------------2---2-----2---| x3
A|----4----------------4-------4------------------0---------------|
E|--2-------------------------------------------------------------|

e|-------------0-------0--------------------0------0---|
B|---------0-----0-------0--------------0-----0------0-|
G|-----1-----1-----1-------1--------1-----1-----1------|
D|---2---2-----------2-------2----2---2-----------2----|
A|-----------------------------------------------------|
E|-0----------------------------0----------------------|


Guitar 2:

e|---5-----5-----5---5-----5-----5---4----4-----4--|
B|-----5-----5---------5-----5---------5----5------|
G|-6-----6-----6---6-----6-----6---6-----6----6----|
D|-------------------------------------------------| x3
A|-------------------------------------------------|
E|-------------------------------------------------|


e|-4-----4-----5-----5-----5-----5-------|
B|---5-----5-----5-----5-----5-----------|
G|-----4-----4-----4-----4-----4---------|
D|---------------------------------------| x2
A|---------------------------------------|
E|---------------------------------------|


Guitar 3: F#min Dmaj Amaj Emaj

_____________________________________________________________________________________________

Main riff: (yes you better believe it)
(04:32 - 4:56)
_____________________________________________________________________________________________

Guitar 1:

e|------------------------------------------------------------|
B|---------0-----------0----------------0-----------0---------|
G|-----6-----6-----6-----6----------6-----6-----6-----6-------|
D|---7---7-------7---7-----7------7---7-------7---7-----7-----|
A|-9-----------8----------------7-----------6-----------------|
E|------------------------------------------------------------|


e|---------------------------------------------------2~-------|
B|---------0-----------0------------------------0~---2~-------|
G|-----6-----6-----6-----6----------------------9~---2~-------|
D|---7---7-------7---7-----7-----------9--------9~---4~-------|
A|-5-----------7-------------7/9-11-12---12-11--7~---4~-------|
E|---------------------------------------------------2~-------|

Guitar 2:

e|---------------------------------------------------------------|
B|----------------------17---------------------------------------|
G|-------------14h16/18----18\16-14------------14-13-------------|
D|-------14h16------------------------------14-------14----------|
A|-14h16------------------------------14-16-------------14/16\14-|
E|---------------------------------------------------------------|

---------------------------
This file passed through:
       Absolute Tabs
   http://www.tabs.co.za
---------------------------