Bass tablature for Breakfast song [intro] by LP Show
#----------------------------------PLEASE NOTE---------------------------------#
#This file is the author's own work and represents their interpretation of the #
#song. You may only use this file for private study, scholarship, or research. #
#------------------------------------------------------------------------------##

ARTIST: Lpshow
ALBUM : Joe Soap the 1st
SONG  : Breakfast song
TABBED BY: S.Joe

This is the intro and main part, i haven't figured out the solo's.



h : hammer-on
p : pull-off

(intro)
|-----------------------------------------------------------------------------------|
|-----------------------------------------------------------------------------------|
|-----------------------------------------------------------------------------------|
|-----------------------------------------------------------------------------------|
|-----------------------------------------------------------------------7h9---------|
|-0-0-0-0-0---0----0-0-0---2-2-0-0----------7-7-7-7-7---7---7-7-7---7h9-------------|



|-----------------------------------------------------------------------------------|
|-----------------------------------------------------------------------------------|
|-----------------------------------------------------------------------------------|
|-----------------------------------------------------------------------------------|
|----------------------------------5h7-7-7-7-7-7-7-7-7-7-7-7-7-7-7p5----------------|
|-0-0-0-0-0---0----0-0-0---2-2-0-0--------------------------------------------------|



  (coffee and blink for breakfast...)

|------------------------|
|------------------------|
|--------6----8----4-----|
|---4----6----8----4-----|
|---4----4----6----2-----|
|---2--------------------|



---------------------------
This file passed through:
       Absolute Tabs
   http://www.tabs.co.za
---------------------------