Guitar tablature for Que Vivas Para Siempre (May you live forever) by Downfall (tabbed by Nevay)
#----------------------------------PLEASE NOTE---------------------------------#
#This file is the author's own work and represents their interpretation of the #
#song. You may only use this file for private study, scholarship, or research. #
#------------------------------------------------------------------------------##

Standard E Tuning

INTRO (gt1+2 clean)
2|-4-|
3|-5-|
4|-5-|
5|-3-|
6|-3-|

VERSE (gt1+2 clean)x4
2|-4---3-|
3|-5---4-|
4|-5---5-|
5|-3---5-|
6|-3---3-|

CHORUS (gt1+2 clean)
2|-4--6--1--3-|
3|-5--8--2--4-|
4|-6--8--3--5-|
5|-6--6--3--5-|
6|-4--6--1--3-|

VERSE x2
CHORUS
SOLO (gt1 clean)
1|---------------------------------------------
2|-------------------------------8-6-----------
3|---5-7-8-7-5p3-5-----5-7-8-7-5-----8-7h8p7~--
4|-5-----------------5-------------------------

1|---------------------------------------------------------
2|-------------------------------8-6-----------8/9-8-6-6h8-
3|---5-7-8-7-5p3-5-----5-7-8-7-5-----8-7h8p7~--------------
4|-5-----------------5-------------------------------------

1|-11-10-8-6-6h8---6h8p6--------------------------
2|-----------------------8p6----------------------
3|---------------------------8p7-8-8/10-8-7-5h7---

1|-11-10-8-6-6h8---6h8p6------------------------------
2|-----------------------8p6--------------------------
3|---------------------------8p7-8-8/10-8-7-8/12-10-8-

2|----------------------9-8-6-8/---|
3|-7h8-8h10-10h12-12h13----------5-|

(gt2 clean)
2|-4---3-|
3|-5---4-|
4|-5---5-|
5|-3---5-|
6|-3---3-|

---------------------------
This file passed through:
       Absolute Tabs
   http://www.tabs.co.za
---------------------------