Guitar tablature for Birthday card by Tweak
#----------------------------------PLEASE NOTE---------------------------------#
#This file is the author's own work and represents their interpretation of the #
#song. You may only use this file for private study, scholarship, or research. #
#------------------------------------------------------------------------------##

     SONG: Birtday Card
   ARTIST: Tweak
    ALBUM: Romantic Lure of Possim Worship
   
TABBED BY: JEAN DU PLESSIS
    EMAIL: jean_du_p@hotmail.co.za
COMMENTS: Moerse easy to figure out , There you go!


e:------------------------------------------------------------------------------
b:------------------------------------------------------------------------------
g:---5--5----------------------------------5--5---------------------------------
d:---5--5--7--7---5--5--X--X--X--X--5--7---5--5---7---7----5---5----------------
a:---3--3--7--7---5--5--X--X--X--X--5--7---3--3---7---7----5---5----------------
e:---------5--5---3--3--X--X--X--X--3--5----------5---5----3---3----------------


e:-------------------------------------------------------------------------------
b:-------------------------------------------------------------------------------
g:---------------------------------------5---------------------------------------
d:-------------------------3------5------5---------------------------------------
a:-------------------------3------5------3---------------------------------------
e:-------------------------1------3----------------------------------------------

Here's a song to say   Thank you very much

e:-------------------------------------------------------------------------------
b:-------------------------------------------------------------------------------
g:-------------------------------------------------------------------------------
d:-3-3-3-3-3-3-----5-5-5-5-5-5---------------------------------------------------
a:-3-3-3-3-3-3-----5-5-5-5-5-5---------------------------------------------------
e:-1-1-1-1-1-1-----3-3-3-3-3-3---------------------------------------------------
  u don't care    u never did.



---------------------------
This file passed through:
       Absolute Tabs
   http://www.tabs.co.za
---------------------------