Guitar tablature for Afrika Sonsak by Robbie Wessels (tabbed by kunuk)
#----------------------------------PLEASE NOTE---------------------------------#
#This file is the author's own work and represents their interpretation of the #
#song. You may only use this file for private study, scholarship, or research. #
#------------------------------------------------------------------------------##

Afrika Sonsak - Robbie Wessels
Album: Afrika Sonsak



The title track to his current album, this song offers a mix of
strumming and finger-picking. There are four basic chords in this song
making it easy for a beginner. The only thing missing is the lyrics.
If you have a copy, could you please send me an email so I can update
the tab? Thanks in advance.

Here are the chords used in the song for quick reference:
        C     C-bar     D     D-bar     F       G     G-bar
e:------0-------3-------2-------5-------1-------3------3------
B:------1-------5-------3-------7-------1-------3------3------
G:------0-------5-------2-------7-------2-------0------4------
D:------2-------5-------0-------7-------3-------0------5------
A:------3-------3---------------5-------3-------2------5------
E:--------------------------------------1-------3------3------

Have fun! Please let me know if there any changes/suggestions you have
to make the tab better,
Your Friendly Neighbourhood Kunuk – kunuk@rocketmail.com

======================================================================

INTRO:
-The following builds on the drums which start the intro
e:-7-5-----------7-5-----------7-5-----------7-5----------|
B:-----8--5---5------8--5---5------8--5---5------8--5---5-|
G:----------7-------------7-------------7-------------7---|
D:--------------------------------------------------------|
A:--------------------------------------------------------|
E:--------------------------------------------------------|


KOOR:
-The guitar alternates between finger-picking on its own, and playing
chords along with the vocals. You have the option of playing all
chords if you prefer as indicated above the bars below

   F         C            G            G      (X3)
e:-1~~~------0~~~--------------------------------|
B:-1~~~------1~~~--------------------------------|
G:-2~~~------0~~~---------4-2----------4-2---2---|
D:-3~~~------2~~~-------------5-2----------5---5-|
A:-3~~~------3~~~-----------------5--------------|
E:-1~~~------------------------------------------|

   F         C            G            G      
e:-1~~~------0~~~---------------------------|
B:-1~~~------1~~~---------------------------|
G:-2~~~------0~~~---------4-2---------------|
D:-3~~~------2~~~-------------5-2------5~~~-|
A:-3~~~------3~~~-----------------5---------|
E:-1~~~-------------------------------------|


VERS1:
G.....G.....G.....G.....
F.....F.....G.....G.....
D.....C.....D.....C.....
D.....C.....D.....C.....
G.....G.....

G.....G.....G.....G.....
F.....F.....G.....G.....
D.....C.....D.....C.....
D.....C.....D.....C.....
G.....G.....


KOOR:
- The guitar alternates between finger-picking on its own, and playing
chords along with the vocals. You have the option of playing all
chords if you prefer as indicated above the bars below

   F         C            G            G      (X3)
e:-1~~~------0~~~--------------------------------|
B:-1~~~------1~~~--------------------------------|
G:-2~~~------0~~~---------4-2----------4-2---2---|
D:-3~~~------2~~~-------------5-2----------5---5-|
A:-3~~~------3~~~-----------------5--------------|
E:-1~~~------------------------------------------|

   F         C            G            G      
e:-1~~~------0~~~---------------------------|
B:-1~~~------1~~~---------------------------|
G:-2~~~------0~~~---------4-2---------------|
D:-3~~~------2~~~-------------5-2------5~~~-|
A:-3~~~------3~~~-----------------5---------|
E:-1~~~-------------------------------------|


VERS2:
G.....G.....G.....G.....
F.....F.....G.....G.....
D.....C.....D.....C.....
D.....C.....D.....C.....
G.....G.....

G.....G.....G.....G.....
F.....F.....G.....G.....
D.....C.....D.....C.....
D.....C.....D.....C.....
G.....G.....


KOOR:
- The guitar alternates between finger-picking on its own, and playing
chords along with the vocals. You have the option of playing all
chords if you prefer as indicated above the bars below

   F         C            G            G      (X3)
e:-1~~~------0~~~--------------------------------|
B:-1~~~------1~~~--------------------------------|
G:-2~~~------0~~~---------4-2----------4-2---2---|
D:-3~~~------2~~~-------------5-2----------5---5-|
A:-3~~~------3~~~-----------------5--------------|
E:-1~~~------------------------------------------|

   F         C            G            G      
e:-1~~~------0~~~---------------------------|
B:-1~~~------1~~~---------------------------|
G:-2~~~------0~~~---------4-2---------------|
D:-3~~~------2~~~-------------5-2------5~~~-|
A:-3~~~------3~~~-----------------5---------|
E:-1~~~-------------------------------------|


BRUG:
G.....C.....D.....G.....
G.....C.....D.....G.....
G.....C.....D.....G.....
G.....C.....D.....G.....
G.....C.....D.....G.....


KOOR:
- The guitar alternates between finger-picking on its own, and playing
chords along with the vocals. You have the option of playing all
chords if you prefer as indicated above the bars below

   F         C            G            G      (X3)
e:-1~~~------0~~~--------------------------------|
B:-1~~~------1~~~--------------------------------|
G:-2~~~------0~~~---------4-2----------4-2---2---|
D:-3~~~------2~~~-------------5-2----------5---5-|
A:-3~~~------3~~~-----------------5--------------|
E:-1~~~------------------------------------------|

   F         C            G            G      
e:-1~~~------0~~~---------------------------||
B:-1~~~------1~~~---------------------------||
G:-2~~~------0~~~---------4-2---------------||
D:-3~~~------2~~~-------------5-2------5~~~-||
A:-3~~~------3~~~-----------------5---------||
E:-1~~~-------------------------------------||

======================================================================

---------------------------
This file passed through:
       Absolute Tabs
   http://www.tabs.co.za
---------------------------