Guitar tablature for H.I.V. by Lithium
#----------------------------------PLEASE NOTE---------------------------------#
#This file is the author's own work and represents their interpretation of the #
#song. You may only use this file for private study, scholarship, or research. #
#------------------------------------------------------------------------------##

Lithium - H.I.V.
Album : Broken
Tabbed by : Shaun Pretorius - hav@worldonline.co.za

Intro:
E-------------------------------
B-------------------------------
G-------------------------------
D-------------------------------
A-----2b------8b------7b------5b
E-0-0-----6-6-----5-5-----3-3---

then...
E-------------------------
B-------------------------
G-------------------------
D-2-2--8-8-8--7-7-7--5-5-5
A-2-2--8-8-8--7-7-7--5-5-5
E-0-0--6-6-6--5-5-5--3-3-3

then...
E------------------------------
B------------------------------
G------------------------------
D-------------------------5-5-5
A-----2b------8b------7b--5-5-5
E-0-0-----6-6-----5-5-----3-3-3

then...
E-------------------
B-------------------
G----5-5-5----------
D-5--5-5-5--7--8-8-8
A-5--3-3-3--7--8-8-8
E-3---------5--6-6-6

then...only the bass plays:
D-------------------
A-------------------
E-0-0--6-6--5-5--3-3

then...drums are added

then...inbetween the guitar plays this:
(really quickly - finger tapping)
E-12h13-12h13-12h13
B------------------

then...
E-------------------------------
B-------------------------------
G-------------------------------
D-------------------------------
A-----2b------8b------7b------5b
E-0-0-----6-6-----5-5-----3-3---

then...
E-------------------------
B-------------------------
G-------------------------
D-2-2--8-8-8--7-7-7--5-5-5
A-2-2--8-8-8--7-7-7--5-5-5
E-0-0--6-6-6--5-5-5--3-3-3

then...
E------------------------------
B------------------------------
G------------------------------
D-------------------------5-5-5
A-----2b------8b------7b--5-5-5
E-0-0-----6-6-----5-5-----3-3-3

then...
E-------------------
B-------------------
G----5-5-5----------
D-5--5-5-5--7--8-8-8
A-5--3-3-3--7--8-8-8
E-3---------5--6-6-6

then...
E-------------------------
B-------------------------
G-------------------------
D-2-2--8-8-8--7-7-7--5-5-5
A-2-2--8-8-8--7-7-7--5-5-5
E-0-0--6-6-6--5-5-5--3-3-3
...end on G....that's the end of the song



---------------------------
This file passed through:
       Absolute Tabs
   http://www.tabs.co.za
---------------------------