Guitar tablature for Today by Jesse Clegg (tabbed by kunuk)
#----------------------------------PLEASE NOTE---------------------------------#
#This file is the author's own work and represents their interpretation of the #
#song. You may only use this file for private study, scholarship, or research. #
#------------------------------------------------------------------------------##

Today - Jesse Clegg
Album:  When I Wake Up



This tab goes out as a special request for Jesse Clegg tabs, which
were missing from the web until today. A more challenging beginner
level tab with one or two bar chords depending on your preference.
Take the time to listen to the song and you should be able to pick up
its slow feel and really get in the groove.

If you prefer, you may exchange the Dm-chords for F-chords. This makes
the sound a little brighter, although less mysterious...the choice is
yours.

Here are the chords used in the song for quick reference:
       Am     C      Dm     F      G      G
e:-----0------0------1------1------3------3-----
B:-----1------1------3------1------0------3-----
G:-----2------0------2------2------0------4-----
D:-----2------2------0------3------0------5-----
A:-----0------3-------------3------2------5-----
E:-----0--------------------1------3------3-----

Have fun! Please let me know if there any changes/suggestions you have
to make the tab better,
Your Friendly Neighbourhood Kunuk – kunuk@rocketmail.com

======================================================================

VERSE 1:
  C
Hello.....today
        Am                   Dm         G
I’m as lonely as you were in May.....today
      C
Some say.....today
             Am                   Dm          G
Is all there ever will be so I’ll stay.....today


INTERLUDE:
-For this section you have the option of playing the notes below or
playing C...Am...Dm...G... chords (the same as the verse above) along
with Jesse

e:-------------------------------------------------------------------|
B:-------------------------------------------------------------------|
G:-5-5--4-4--2-2----5-5--4--4--2-2----5-5--4-4--2-2----5-5--4-4-2--2-|
D:-------------------------------------------------------------------|
A:-------------------------------------------------------------------|
E:-------------------------------------------------------------------|


CHORUS:
Am             F
Message to the one
              Am
Step into the sun
                 F
Remember all the days
                      Am
That disappeared like rain

Am           F
Open up your eyes
               Am
Everything’s alright
                    F
I tried to make you see
                 G
The wood for the trees


VERSE 2:
     C
You pray.....today
       Am                  Dm          G
That tomorrow will be your day.....you say
     C
I may.....today
         Am                        Dm        G
Tell you how I am feeling, in your way.....today


INTERLUDE:
-For this section you have the option of playing the notes below or
playing C...Am...Dm...G... chords (the same as the verse above) along
with Jesse

e:-------------------------------------------------------------------|
B:-------------------------------------------------------------------|
G:-5-5--4-4--2-2----5-5--4--4--2-2----5-5--4-4--2-2----5-5--4-4-2--2-|
D:-------------------------------------------------------------------|
A:-------------------------------------------------------------------|
E:-------------------------------------------------------------------|


CHORUS: (2X)
Am             F
Message to the one
              Am
Step into the sun
                 F
Remember all the days
                      Am
That disappeared like rain

Am           F
Open up your eyes
             Am
Everything’s alright
                    F
I tried to make you see
                 G
The wood for the trees


GUITAR SOLO:
-This is a simplified version of the solo, as I tried to keep things
easy to play. It does flow well with the song as is, but if you want
to challenge yourself some more, you can change the forth bar as the
lead guitar does through the end of the song

e:-----------------------|-------------------------|
B:-----------------------|-------------------------|
G:-----------------------|-------------------------|
D:---------4-4-----------|-----------4-4-----------|
A:-5-5-5-5-----5-5-4~-5--|---5-5-5-5-----5-5-4~-5--|
E:-----------------------|-------------------------|

e:---------------------|---------------------------|
B:---------------------|---------------------------|
G:---------------------|---------------------------|
D:---------7-7-4-4-7---|--5-4-4-4-4-----4~~~~~-----|
A:-5-5-5-5-------------|------------5-5------------|
E:---------------------|---------------------------|


OUTRO:
-As well as the solo option above, you can also play the chords below
to the end of the song

D
I don’t want to be
Bm
I don’t want to be
G                           A
I don’t want to be the only one

======================================================================

---------------------------
This file passed through:
       Absolute Tabs
   http://www.tabs.co.za
---------------------------