Bass tablature for Shadows 2001 by Wonderboom
#----------------------------------PLEASE NOTE---------------------------------#
#This file is the author's own work and represents their interpretation of the #
#song. You may only use this file for private study, scholarship, or research. #
#------------------------------------------------------------------------------##

     SONG: Shadows 2001
   ARTIST: Wonderboom
    ALBUM: Rewind
  WEBSITE: www.wonderboom.co.za

     TYPE: Bass Tablature
TABBED BY: Nik Felbab
    EMAIL: rolling_monkey@hotmail.com
COMMENTS: There's something really good about this song, despite its
simplicity. I love it anyway. Tabbing this was a mere half-hour's work. I'm
95% sure it's correct. E-mail me for any comments or questions.


INTRO
G|----------------------------------|----------------------------------|
D|-----6-9-------6-9----------------|-----8-11-------8-11--------------|
A|-7-7-----7-7-7---------9-9----9-9-|-9-9------9-9-9--------9-9----9-9-|
E|----------------------------------|----------------------------------|


VERSE (when singing begins)
G|----------------------------|----------------------------|
D|-----6-9-------6-9----------|-----8-11-------8-1-1-------|
A|-7-7-----7-7-7---------9-9--|-9-9------9-9-9---------9-9-|
E|----------------------------|----------------------------|


CHORUS ("Shadows...shadows...") Note: Same as intro, an octave lower.
G|----------------------------------|----------------------------------|
D|----------------------------------|----------------------------------|
A|-------2---------2----------------|-----1-4-------1-4----------------|
E|-0-0-4---0-0-0-4------2-2----2-2--|-2-2-----2-2-2--------2-2----2-2--|


NB!: Rest for guitar solo from 2:28 until 2:45


INTERLUDE (2:45)
G|---------------------------|
D|---------------------------|
A|-----2~--------------------|    ~ = Let ring
E|-0-0---------2-2--5~-------|


---------------------------
This file passed through:
       Absolute Tabs
   http://www.tabs.co.za
---------------------------