Guitar tablature for Die Seksuele Revolusie by Fokofpolisiekar
#----------------------------------PLEASE NOTE---------------------------------#
#This file is the author's own work and represents their interpretation of the #
#song. You may only use this file for private study, scholarship, or research. #
#------------------------------------------------------------------------------##

     SONG: Die Seksuele Revolusie  
   ARTIST: Fokofpolisiekar
    ALBUM: Monoloog in Stereo

     TYPE: Guitar Tablature
TABBED BY: Johan Cronje  
    EMAIL: geetarknaap@yahoo.com
COMMENTS: Dink dis 99% reg, net nie seker oor die lead gedeeltes..enjoy..


Intro
e:-------------------------------------------------------------------------------
b:-------------------------------------------------------------------------------
g:-------------------------------------------------------------------------------
d:--7--7--9--10-------12-14-------15-14/---7--7--7--7--9--10-7/-3--3--3--2-------
a:--0--0--0--0--0--0--0--0--0--0--0--0--0--0--0--0--0--0--0--0--0--0--0--0-------
e:-------------------------------------------------------------------------------


Chorus
e:-------------------------------------------------------------------------------
b:-------------------------------------------------------------------------------
g:-------------------------------------------------------------------------------
d:--7--7--9--10----5--3----9--10---3----7--7--9--10---5--3--9--10----------------
a:--7--7--9--10----5--3----9--10---3----7--7--9--10---5--3--9--10----------------
e:--5--5--7--8-----3--1----7--8----1----5--5--7--8----3/-1--7--8-----------------

e:-------------------------------------------------------------------------------
b:-------------------------------------------------------------------------------
g:-------------------------------------------------------------------------------
d:--7--7--9--10----5--3----9--10---3---------------------------------------------
a:--7--7--9--10----5--3----9--10---3---------------------------------------------
e:--5--5--7--8-----3--1----7--8----1---------------------------------------------


Lead gedeelte oor Chorus (nie 100%)   {^ bend op 2de chorus se einde)
e:-------------------------------------------------------------------------------
b:------12-13--12--13--------13-------------12-13--12--13---------13-------------
g:---14----------------10--9-----10-9---14---------------12-10-9----12-----------
d:----------------------------------^--------------------------------------------
a:-------------------------------------------------------------------------------
e:-------------------------------------------------------------------------------


Verse    "Dis baie mooi..."
e:-------------------------------------------------------------------------------
b:-------------------------------------------------------------------------------
g:-------------------------------------------------------------------------------
d:-------------------------------------------------------------------------------
a:---7777777777777777777777775555555555555555333333338888888877777777------------
e:-------------------------------------------------------------------------------
     ................................................................

         "...gesonde verstand..."
e:-------------------------------------------------------------------------------
b:-------------------------------------------------------------------------------
g:---------------------------------------------------77777777/-------------------
d:--55-7-7777777777777755555555555555553333333333333377777777/-------------------
a:--55-7-7777777777777755555555555555553333333333333355555555/-------------------
e:--33-5-55555555555555333333333333333311111111111111----------------------------
         ............................................


Chorus


Post Chorus : net na "...blindoek op..."        { t = 10 }
e:-------------------------------------------------------------------------------
b:-------------------------------------------------------------------------------
g:-------------------------------------------------------------------------------
d:---33333333333333337777777777777777tttttttttttttttt6666666666666666------------
a:---33333333333333337777777777777777tttttttttttttttt6666666666666666------------
e:---1111111111111111555555555555555588888888888888884444444444444444------------


Interlude 1 (intro riff)


Verse     "...ons kort n leier..."
e:-------------------------------------------------------------------------------
b:-------------------------------------------------------------------------------
g:-------------------------------------------------77777777----------------------
d:---7-7777777777777755555555555555553333333333333377777777----------------------
a:---7-7777777777777755555555555555553333333333333355555555----------------------
e:---5-55555555555555333333333333333311111111111111------------------------------
       ....................................................

          "...jou eie graf..."   *laat elke noot ring
e:-------------------------------------------------------------------------------
b:-------------------------------------------------------------------------------
g:---9*------------7*-----------5*----------2*-----------2-2---------------------
d:---7-------------5------------3-----------0------------0-0---------------------
a:---7-------------5------------3-----------0------------0-0---------------------
e:-------------------------------------------------------------------------------


Chorus


          "...met 'n blinddoek op..."
e:-------------------------------------------------------------------------------
b:-------------------------------------------------------------------------------
g:-------------------------------------------------------------------------------
d:----7777-5555-3333-2222--------------------------------------------------------
a:----7777-5555-3333-2222--------------------------------------------------------
e:----5555-3333-1111-0000--------------------------------------------------------


Post Chorus x1


          "...jou breinkind gaan..."  
e:-------------------------------------------------------------------------------
b:-------------------------------------------------------------------------------
g:-------------------------------------------------------------------------------
d:---33333333333322227777777777779999tttttttttttt5555666666666666----------------
a:---33333333333322227777777777779999tttttttttttt5555666666666666----------------
e:---111111111111000055555555555577778888888888883333444444444444----------------


Interlude 2
e:-------------------------------------------------------------------------------
b:-------------------------------------------------------------------------------
g:-------------------------------------------------------------------------------
d:-----7--9--10----5--3----9--10---3----7777-5555-3333-2222----------------------
a:-----7--9--10----5--3----9--10---3----7777-5555-3333-2222----------------------
e:-----5--7--8-----3--1----7--8----1----5555-3333-1111-0000----------------------
gtr2:
e:-------------------------------------------------------------------------------
b:-----chorus lead---------------------------------------------------------------
g:--------------------------------------2222-4444-5555-7777----------------------
d:--------------------------------------xxxx-xxxx-xxxx-xxxx----------------------
a:--------------------------------------0000-2222-3333-5555----------------------
e:-------------------------------------------------------------------------------


Chorus


eindig:    "...met 'n blinddoek op..."
e:-------------------------------------------------------------------------------
b:-------------------------------------------------------------------------------
g:-------------------------------------------------------------------------------
d:----7777-5555-3333-2222--------------------------------------------------------
a:----7777-5555-3333-2222--------------------------------------------------------
e:----5555-3333-1111-0000--------------------------------------------------------



---------------------------
This file passed through:
       Absolute Tabs
   http://www.tabs.co.za
---------------------------