Guitar tablature for As We Go by Karen Zoid (tabbed by kunuk)
#----------------------------------PLEASE NOTE---------------------------------#
#This file is the author's own work and represents their interpretation of the #
#song. You may only use this file for private study, scholarship, or research. #
#------------------------------------------------------------------------------##

As We Go - Karen Zoid
Album: Postmodern World



In this song, we get to see the softer side of Karen Zoid thanks to
little Ben who already has made a huge impact...thanks little guy!

You can make this song as complicated as you wish, as there are quite
a lot of guitar riffs scattered throughout the song. If you would
like, you could repeat the format of the intro for the chords as you
go through the song, or you could simply play the root of the chord
before the chord for a similar (yet easier) effect.

Here are the chords used in the song for quick reference:
        B       C        D       Em      G        
e:------2-------0--------2-------0-------3-------
B:------4-------1--------3-------0-------2-------
G:------4-------0--------2-------0-------0-------
D:------4-------2--------0-------2-------0-------
A:------2-------3----------------2-------0-------
E:-------------------------------0-------3-------

Have fun! Please let me know if there any changes/suggestions you have
to make the tab better,
Your Friendly Neighbourhood Kunuk – kunuk@rocketmail.com

======================================================================

INTRO:
     G         D         C         D         G       D         C
e:---3-3-------2-2-------0-0-------2-2-------3-3-----2-2-------0-0-|
B:---3-3-------3-3-------1-1-------3-3-------3-3-----3-3-------1-1-|
G:---0-0-------2-2-2-1-0-0-0-------2-2-------0-0-----2-2-2-1-0-0-0-|
D:---0-0-----0-0-0-------2-2-----0-0-0-0-----0-0-----0-0-------2-2-|
A:---2-2---2-------------3-3-3-4---------2---2-2---2-----------3-3-|
E:-3-3-3-3---------------------------------3-3-3-3-----------------|


G  D  C        D
Baby, you’re a mystery
        G           D        C            
To your Mommy, and your Daddy too
    G  D  C              D
And maybe we’re a little crazy
    G  D  C       
But baby, we are next of kin


    Em                    G             B
And here we learn what we need to know, as we go
    Em                    G             B
And here we learn what we need to know, as we go
    Em                    G             B
And here we learn what we need to know, as we go
    Em                    G             B
And here we learn what we need to know, as we go


C   G     C         G   
On     my love goes on and on
C   G    C            D
Our love for you goes on and on

G     D  C            D           G
My baby, I’ll write a lullaby for you
G     D        C        D                 G
Sweet angel, a piece of heaven’s stuck on you
G  D        C        D            G
My darling, it is to beautiful to me
G   D         C
Hey stranger, when do we get to know you?


G     D     C     D     G     D     C     D                   
Oooooooooo......


       G    D   C                D  
I will lead you to the brightest light
    G    D   C              D  
And hold you in the darkest night
      G    D   C            D  
I’ll teach you everything I know
           G     D   C               
And you’ll teach me, it’s just the way it goes


    Em                    G             B
And here we learn what we need to know, as we go
    Em                    G             B
And here we learn what we need to know, as we go
    Em                    G             B
And here we learn what we need to know, as we go
    Em                    G             B
And here we learn what we need to know, as we go


GUITAR SOLO:
e:-------------------------------------------------------------|
B:-------------------------------------------------------------|
G:-0-4-0-------0-4-0-0-------0-4-0-0-------4-2-0--4-2-0--4-2-0-|
D:-------4-5-5---------5-4-4---------4-5-5---------------------|
A:-------------------------------------------------------------|
E:-------------------------------------------------------------|


G                    D
Baby gotta know your Mommy ain’t perfect
G                    D
Baby gotta know your Daddy ain’t perfect
G                    D
Baby gotta know that you aren’t perfect
G                    C
Baby gotta know this world ain’t perfect


G           C
But love is perfect, baby
G       C
Love is perfect


G                    D
Baby gotta know that love is perfect
G                    C
Baby gotta know that love is perfect


Em                    G             B
Here we learn what we need to know, as we go
Em                    G             D
Here we learn what we need to know, as we gooooooooooo......

======================================================================

---------------------------
This file passed through:
       Absolute Tabs
   http://www.tabs.co.za
---------------------------