Guitar tablature for Girl Lost in the City by Jesse Clegg (tabbed by kunuk)
#----------------------------------PLEASE NOTE---------------------------------#
#This file is the author's own work and represents their interpretation of the #
#song. You may only use this file for private study, scholarship, or research. #
#------------------------------------------------------------------------------##

Girl Lost in the City - Jesse Clegg
Album: When I Wake Up



This song takes advantage of major-minor pairs. For those of you not
familiar with them, the idea is that there are major and minor chords
that share so many notes that they sound very similar. In this song
there are two pairs: the Bm-D and the A-F#m.

If you are feeling up for a challenge, simply play the song as is. If
you are a beginner you can start by playing the whole song with just
two chords A and D, where you substitute the D for the Bm, and the A
for the F#m. This won’t sound exact, but will sound close enough to
play and sing along with. As your confidence increases, you can start
switching things up by adding back the minor chords.

Here are the chords used in the song for quick reference:
       A      Bm     D      F#m
e:-----0------2------2------2------
B:-----2------3------3------2------
G:-----2------4------2------2------
D:-----2------4------0------4------
A:-----0------2-------------4------
E:--------------------------2------

Have fun! Please let me know if there any changes/suggestions you have
to make the tab better,
Your Friendly Neighbourhood Kunuk – kunuk@rocketmail.com

======================================================================

INTRO:
e:-------------------------------------------------------------------|
B:-------------------------------------------------------------------|
G:-------------------------------------------------------------------|
D:---------------------------------------------------4-4-4-4-4-4-4-4-|
A:-5-5-5-5-5-5-5-5--4-4-4-4-4-4-4-4----------------------------------|
E:-----------------------------------7-7-7-7-7-7-7-7-----------------|

e:-------------------------------------------------------------------|
B:-------------------------------------------------------------------|
G:-------------------------------------------------------------------|
D:-------------------------------------------------------------------|
A:-5-5-5-5-5-5-5-5--4-4-4-4-4-4-4-4----------------------------------|
E:----------------------------------7-7-7-7-7-7-7-7--7-7-5-5-5-5-5-5-|


VERSE1:
D                                A
Hard rain falls over a heartless town
                         Bm
Can the same be said for you?
                         F#m
Have you overstayed your welcome?
D                             A
Long hours longing for your return
                 Bm
To make it up to you
                                 F#m
Do you think that you’ve escaped us?


CHORUS:
A                        D
So what’s the difference anyway?
             A
It’s all the same
                    Bm
You make it on your own
             F#m
For worse or better
             D
So won’t you say
         A
What you mean?
                    Bm
Because without the weight
        F#m           A
Of your words nothing remains
    D
The same


INTERLUDE:
e:-------------------------------------------------------------------|
B:-------------------------------------------------------------------|
G:-------------------------------------------------------------------|
D:---------------------------------------------------4-4-4-4-4-4-4-4-|
A:-5-5-5-5-5-5-5-5--4-4-4-4-4-4-4-4----------------------------------|
E:-----------------------------------7-7-7-7-7-7-7-7-----------------|


VERSE2:
D                                A
Grim look from judging eyes of a stranger
               Bm
Maybe it’s for you
                         F#m
Have you made yourself a martyr?
D                              A
Your makeshift wooden matchbox cars
                 Bm
Reminding you of home
                         F#m
Have you written to your father?


CHORUS:
A                        D
So what’s the difference anyway?
             A
It’s all the same
                    Bm
You make it on your own
             F#m
For worse or better
             D
So won’t you say
         A
What you mean?
                    Bm
Because without the weight
        F#m           A
Of your words nothing remains
    D
The same


TRANSITION:
-This is just a short ‘transition’ into the bridge
e:--------------------------------|
B:--------------------------------|
G:--------------------------------|
D:--------------------------------|
A:-5-5--5-5-5---4-4--4-4-4-4-4-4--|
E:--------------------------------|


BRIDGE:
-This section repeats over the lyrics below
e:---------------------------------------------------------------|
B:---------------------------------------------------------------|
G:---------------------------------------------------------------|
D:---------------------------------------------4-4--4-4-4-4-4-4--|
A:-5-5--5-5-5---4-4--4-4-4-4-4-4---------------------------------|
E:---------------------------------7-7--7-7-7--------------------|

Run, run, run away
Come back when you see some change
You don’t need no reason
(Everybody’s hollow inside)
What you see, what you get
No one showed you what you wanted
You don’t need no reason
(Everybody’s hollow inside)


OUTRO:
A                        D
So what’s the difference anyway?
             A
It’s all the same
                    Bm
You make it on your own
             F#m
For worse or better
             D
So won’t you say
         A
What you mean?
                    Bm
Because without the weight
        F#m           A
Of your words nothing remains
    D
The same

e:-------------------------------------|
B:-------------------------------------|
G:-------------------------------------|
D:-------------------------------------|
A:-5-5--5-5-5---4-4--4-4-4-4-4-4-------|
E:--------------------------------7~~~-|

======================================================================

---------------------------
This file passed through:
       Absolute Tabs
   http://www.tabs.co.za
---------------------------