Guitar tablature for Thank You by Watershed (tabbed by kunuk)
#----------------------------------PLEASE NOTE---------------------------------#
#This file is the author's own work and represents their interpretation of the #
#song. You may only use this file for private study, scholarship, or research. #
#------------------------------------------------------------------------------##

Thank You - Watershed
Album:  Staring at the Ceiling



A definite ‘Thank You’ to the band for making it all the way up to the
Great White North. Of course with the rain that day and the weeks
before, most of the snow had already melted away.

Because of the key, this song is more on an intermediate level tab as
all chords are easier to play as bar chords. If you would like to play
open chords instead, you could tune your guitar down a semi-tone to
Eb-Ab-Db-Gb-Bb-Eb. This would allow you to shift all chords in the
song up from B-C#-D#m-F# to C-D-Em-G. The choice is yours. I have
included both sets of chord references.

Here are the chords used in the song for quick reference:
       B       C#      D#m     F#          C      D      Em     F
e:-----2-------4-------6-------2------|----0------2------0------1-----
B:-----4-------6-------8-------2------|----1------3------0------1-----
G:-----4-------6-------8-------3------|----0------2------0------2-----
D:-----4-------6-------8-------4------|----2------0------2------3-----
A:-----2-------4-------6-------4------|----3-------------2------------
E:-----------------------------2------|------------------0------------

Have fun! Please let me know if there any changes/suggestions you have
to make the tab better,
Your Friendly Neighbourhood Kunuk – kunuk@rocketmail.com

======================================================================

INTRO:
   F#               B                F#               B
e:-2-------------|--2-------------|--2-------------|--2-------------|
B:-2-------------|--4-------------|--2-------------|--4-------------|
G:-3--------4-3--|--4--------4-3--|--3--------4-3--|--4--------4-3--|
D:-4--4---4------|--4--4---4------|--4--4---4------|--4--4---4------|
A:-4----4--------|--2----4--------|--4----4--------|--2----4--------|
E:-2-------------|----------------|--2-------------|----------------|


VERSE1:
        F#            F#
Oh baby I want you to hold me
         B             F#
And baby I want you to talk to me
          B                    F#
So grab a seat, sit down right next to me
               C#              D#m        C#           C#
‘cos I want to be with you, and I want to hold you...  Yea, yea, yea


INTERLUDE:
F#......F#......F#.....F#.....


VERSE2:
         F#            F#
And baby I want you to sing to me
         B                      F#
And baby I want you to come and walk with me
             B                    F#
Oh so grab a seat, sit down right next to me
               C#              D#m        C#           C#
‘cos I want to be with you, and I want to hold you...  Yea, yea, yea


CHORUS:
F#
I want to thank you for the good times girl
    B
You make me feel alright
F#                                      B
I want to thank you girl for loving me, you oh divine
       F#                            B
It’s a crazy little world we live in 9 to 5
    C#             D#m     C#
But that’s alright, I feel fine
C#
Yea, yea, yea, yea, yea


INTERLUDE:
F#......F#......F#.....F#.....


BRIDGE:
             F#                             F#
Oh ‘cos baby I want you to come up, come up close to me
         B                               F#
And baby I want you to come up, come and talk to me
             B                                        F#
Oh so grab a seat sit down right here right now right next to me
               C#              D#m       C#           C#
‘cos I want to be with you and I want to love you...  Yea, yea, yea


CHORUS:  (2X)
F#
I want to thank you for the good times girl
    B
You make me feel alright
F#                                      B
I want to thank you girl for loving me, you oh divine
       F#                            B
It’s a crazy little world we live in 9 to 5
    C#             D#m     C#
But that’s alright, I feel fine
C#
Yea, yea, yea, yea, yea


INTRO: (Repeat to fade)
   F#               B                F#               B
e:-2-------------|--2-------------|--2-------------|--2-------------||
B:-2-------------|--4-------------|--2-------------|--4-------------||
G:-3--------4-3--|--4--------4-3--|--3--------4-3--|--4--------4-3--||
D:-4--4---4------|--4--4---4------|--4--4---4------|--4--4---4------||
A:-4----4--------|--2----4--------|--4----4--------|--2----4--------||
E:-2-------------|----------------|--2-------------|----------------||

======================================================================

---------------------------
This file passed through:
       Absolute Tabs
   http://www.tabs.co.za
---------------------------