Guitar tablature for Beautiful by Karen Zoid
#----------------------------------PLEASE NOTE---------------------------------#
#This file is the author's own work and represents their interpretation of the #
#song. You may only use this file for private study, scholarship, or research. #
#------------------------------------------------------------------------------##

     SONG: Beautiful
   ARTIST: Karen Zoid
    ALBUM: Chasing the Sun
  

     TYPE: Guitar Tablature
TABBED BY: *Zel*
    
These are just the chords used - my friend *Zel* tabbed this, I'm just submitting
it on her behalf & I am too lazy to add the words etc. But it is REALLY easy if
you listen to the song


       C              Am             Em              F         G
e:-----0--------------0--------------0---------------1---------3------------------
b:-----1--------------1--------------0---------------1---------3------------------
g:-----0--------------2--------------0---------------2---------4------------------
d:-----2--------------2--------------2---------------3---------5------------------
a:-----3--------------0--------------2---------------3---------5------------------
e:-----------------------------------0---------------1---------3------------------

The F and G are played quickly after one another - i.o.w. you only stum the F for
half the timing and then you move to the G for the other half.

Enjoy!

---------------------------
This file passed through:
       Absolute Tabs
   http://www.tabs.co.za
---------------------------