Guitar tablature for 10 Seconds by Cutting Jade
#----------------------------------PLEASE NOTE---------------------------------#
#This file is the author's own work and represents their interpretation of the #
#song. You may only use this file for private study, scholarship, or research. #
#------------------------------------------------------------------------------##


Date: Fri, 2 Jan 2004 15:53:11 +0200
From: Arthur Maydell
Subject: c/cutting_jade/ten_seconds.tab


Artist: Cutting Jade
Tabbed Song: Ten Seconds
Band Website: www.cutingjade.com
Tabbed by: Arthur (arty@mweb.co.za)
Date: Fri 02 Jan 2004

Tuning: Cb Gb Cb Fb Ab Db = Drop D (D A D G B E) then each
string dropped half a step again
(the song sounds cool on normal Drop D tuning as well)



Intro (distorted guitar)

Db------------------------------------------|
Ab------------------------------------------|
Fb-7-7-7-7---------5-5-5-5------------------|
Cb-7-7-7-7-3-3-3-3-5-5-5-5-3h5-5-3h5p3p0----|
Gb-5-5-5-5-3-3-3-3-3-3-3-3-3h5-5-3h5p3p0----|
Cb---------3-3-3-3---------3h5-5-3h5p3p0----|


Verse (Clean guitar)
  
Db--------------------------------------------------------------|
Ab-----5h6-------5h6------5h6------5h6------5h6------5h6--------|
Fb--------------------------------------------------------------|
Cb---7---------5--------7--------5--------7--------5----------3-|
Gb-5---------3--------5--------3--------5--------3----------3---|
Cb--------------------------------------------------------3-----|

       "I'm sorry if I hurt you, ..."



|------------------|
|------------------|
|------------------|
|---------5---5----|
|---3---5----------|
|-3---5-----5------|



Chorus (distorted guitar)

|------------------------------------------|
|------------------------------------------|
|-7-7-7-7---------5-5-5-5------------------|
|-7-7-7-7-3-3-3-3-5-5-5-5-3h5-5-3h5p3p0----|
|-5-5-5-5-3-3-3-3-3-3-3-3-3h5-5-3h5p3p0----|
|---------3-3-3-3---------3h5-5-3h5p3p0----|


"Ten Seconds form a nervous breakdown..."



Bridge 1 (distorted guitar)



|-5-5-5-5-5-----------6-6-6-6-6-5-6-5-5-6----|
|-6-6-6-6-6-5-5-5-5-5-6-6-6-6-6-5-6-5-5-6----|
|-7-7-7-7-7-5-5-5-5-5-5-5-5-5-5-5-5-5-5-5----|
|-7-7-7-7-7-5-5-5-5-5-3-3-3-3-3-3-3-3-3-3----|
|-5-5-5-5-5-3-3-3-3-3------------------------|
|--------------------------------------------|

  "HEYYYYYY..."



Bridge 2 (clean guitar)

|-5-5-5-5-5-----------6-6-6-6-6-5-6-5-5-6----|
|-6-6-6-6-6-5-5-5-5-5-6-6-6-6-6-5-6-5-5-6----|
|-7-7-7-7-7-5-5-5-5-5-5-5-5-5-5-5-5-5-5-5----|
|-7-7-7-7-7-5-5-5-5-5-3-3-3-3-3-3-3-3-3-3----|
|-5-5-5-5-5-3-3-3-3-3------------------------|
|--------------------------------------------|

"Hey, I don't wanna spend a minute without you..."

---------------------------
This file passed through:
       Absolute Tabs
   http://www.tabs.co.za
---------------------------