Bass tablature for Sporadies Nomadies by Fokofpolisiekar (tabbed by crumpuppet)
#----------------------------------PLEASE NOTE---------------------------------#
#This file is the author's own work and represents their interpretation of the #
#song. You may only use this file for private study, scholarship, or research. #
#------------------------------------------------------------------------------##

Tab deur Hannes van Zyl

Fokofpolisiekar - Sporadies Nomadies

intro, geen bass

(0:13)
(x2)
G|---------------------------------------------|
D|---------------------------------------------|
A|-5555-5555-5555-5555-0-2222-2222-2222-2222-0-|
D|---------------------------------------------|



(0:27)
G|-------------------------------------------|
D|-------------------------------------------|
A|-55-55-55---22-22-22---55-55-55---22-22-22-|
D|-------------------------------------------|


(0:40 - "kleptomanies...")
G|------------------------------------------|
D|------------------------------------------|
A|------------------------------------------|
D|-2222-2222--4444-4444-5555-5555-5555-5555-|

G|------------------------------------------|
D|------------------------------------------|
A|-2222-2222-2222-0000-5555-5555-5555-5555--|
D|------------------------------------------|

G|------------------------------------------|
D|------------------------------------------|
A|-2222-2222-2222-0000----------------------|
D|---------------------5555-5555-5555-5555--|

G|------------------------------------------|
D|------------------------------------------|
A|-2222-2222-2222-0000-5555-5555-5555-5555--|
D|------------------------------------------|

G|------------------------------------------|
D|------------------------------------------|
A|------------------------------------------|
D|-2222-2222-2222-2222-2222-2222-2222-2222--|


(1:16)
(x2)
G|------------------------------------------|
D|------------------------------------------|
A|-2220-------------------------------------|
D|------4444-5555-5555-2222-2222-5555-5555--|



(1:30 - "gemene swerweling...")
G|---------------------------------------|
D|---------------------------------------|
A|-2222-2222-5555-5-0---2222-2222-5555-0-|
D|---------------------------------------|

G|------------------------------------------|
D|------------------------------------------|
A|-2222-2222-5555-5-0-----------------------|
D|---------------------5-555-5555-5555-5555-|


(1:43)
G|-------------------------------------------|
D|-------------------------------------------|
A|-55-55-55---22-22-22---55-55-55---22-22-22-|
D|-------------------------------------------|


(1:57 - "kom stem saam...")
G|------------------------------------------|
D|------------------------------------------|
A|-5555-5555-5555-5555-0--------------------|
D|---------------------5555-5555-5555-5555--|

G|------------------------------------------|
D|------------------------------------------|
A|-2220-------------------------------------|
D|------4444-5555-5555-2222-2222-5555-5555--|

G|------------------------------------------|
D|------------------------------------------|
A|-2220-------------------------------------|
D|------4444-5555-5555-2222-2222-5----------|


(2:17)

G|------------------------------------------|
D|------------------------------------------|
A|-2222-2222-5555-5-0---2222-2222-5555-5-0--|
D|------------------------------------------|

G|------------------------------------------|
D|------------------------------------------|
A|-2222-2222-5555-5-0-----------------------|
D|---------------------5-555-5555-5555-5555-|


(2:31)

G|-----------------------------------|
D|-----------------------------------|
A|-----------------------------------|
D|-2-2-2-2-2-2-2-2--5-5-5-5-5-5-5-5--|

G|-----------------------------------|
D|-----------------------------------|
A|-----------------------------------|
D|-7-7-7-7-7-7-7-7--9-9-9-9-5-5-5-5--|

G|----------------------------------------|
D|----------------------------------------|
A|----------------------------------------|
D|-7777-7777-7777-7777--999-999-5-55-5555-|


(2:52)
G|-----------------------------------|
D|-----------------------------------|
A|-2~---0--5~-----2~---0-------------|
D|------------------------5~---------|

(3:05)
G|------------------------------------------|
D|------------------------------------------|
A|-2222-2222-2222-0000-5555-5555-5555-5555--|
D|------------------------------------------|

G|------------------------------------------|
D|------------------------------------------|
A|------------------------------------------|
D|-2222-2222-2222-2222-2222-2222-2222-2222--|


(3:20)
G|------------------------------------------|
D|------------------------------------------|
A|-2222-2222-5555-5-0---2222-2222-5555-5-0--|
D|------------------------------------------|

G|------------------------------------------|
D|------------------------------------------|
A|-2222-2222-5555-5-0-----------------------|
D|---------------------5-555-5555-5555-5555-|


G|------------------------------------------|
D|------------------------------------------|
A|-2222-2222-5555-5-0---2222-2222-5555-5-0--|
D|------------------------------------------|

G|------------------------------------------|
D|------------------------------------------|
A|-2222-2222-5555-5-0-----------------------|
D|---------------------5-555-5555-5555-5555-|

(3:48 - outro)
G|---------|
D|---------|
A|-5-0-2~--|
D|---------|

---------------------------
This file passed through:
       Absolute Tabs
   http://www.tabs.co.za
---------------------------