Guitar tablature for Hemel Op Die Platteland by Fokofpolisiekar (tabbed by TMoose)
#----------------------------------PLEASE NOTE---------------------------------#
#This file is the author's own work and represents their interpretation of the #
#song. You may only use this file for private study, scholarship, or research. #
#------------------------------------------------------------------------------##

I've seen a lot of completely wrong tabs for this song. This is how I play it and I think it's pretty close.

Intro

Pick through top half of a G and then Am hitting bottom e. Something like:

e|--------------0-------------|
B|------------1---1p0h1p0-----|
G|------------------------0---|      x 4
D|-----0----2-----------------|
A|---2---0--------------------|
E|-3--------------------------|

Then strum top 2 strings in C, E7 and G in quick succession


Am                       C         G
Kan jy my skroewe vir my vasdraai?
Am                  C      G
Kan jy my albasters vir my vind?
C                                              
Kan jy jou idee van normaal by jou gat op druk?
    F             G
Kan jy? Kan jy apatie spel?
Am                 C       G
Kan iemand dalk 'n god bel?
C                                             
En vir hom sê ons het hom nie meer nodig nie
    F              G
Kan jy? Kan jy apatie spel?



The fill is essentially picking C, something like

1:

e|----------0--------------0-------|
B|--------1---1--------1-----1-----|
G|--------------0--------------0---|      
D|-----2-------------2---2-------2-|
A|---3-------------3---------------|
E|---------------------------------|

2:

e|----------0--------------0-------|
B|--------1---1--------1-----1-----|
G|--------------0--------------0---|      
D|-----3-------------3---3-------3-|
A|---3-------------3---------------|
E|---------------------------------|

1                  
Dis hemel op die platteland
2
Dis hemel op die platteland
1            
Reguleer my, roetineer my
2                      Am       G
Plaas my in 'n boks en merk dit veilig
C
Stuur my dan waarheen al die dose gaan
F                     C               G          Am
Stuur my hemel toe ek dink dis in die platteland


Repeat Am / C / G 2x

Am                  C              G                                              
Kan jy jou idee van normaal by jou gat op druk?
   Am             C   G
Kan jy? Kan jy apatie spel?

Am  C            G  
Dis hemel op die platteland      x4


Piano continues to end

---------------------------
This file passed through:
       Absolute Tabs
   http://www.tabs.co.za
---------------------------