Guitar tablature for Taken From Me by Downfall (tabbed by Nevay)
#----------------------------------PLEASE NOTE---------------------------------#
#This file is the author's own work and represents their interpretation of the #
#song. You may only use this file for private study, scholarship, or research. #
#------------------------------------------------------------------------------##

Standard E Tuning (Drop D)

INTRO (gt1 clean)
4|-1h3-3-3--1h3-3-3--1h4--4-|
5|-1h3-3-3--1h3-3-3--1h4--4-|
6|-1h3-3-3--1h3-3-3--1h4--4-| x3

4|-1h3-3-3--3m-|
5|-1h3-3-3--3m-|
6|-1h3-3-3--3m-|

(gt1+2 dist)
4|-3--3333-3--3333h4-|
5|-3--3333-3--3333h4-|
6|-3--3333-3--3333h4-| x4
       ..      ..

4|-1h3-333-1h3-333--1-4-|
5|-1h3-333-1h3-333--1-4-|
6|-1h3-333-1h3-333--1-4-| x4
        ..      ..

(gt2 dist)
4|-3-          -|
5|-3 (fade out) |
6|-3-          -|

VERSE (gt1 clean)
2|-5---5---5---5---5---5-6---6---6---6---6-|
3|---3---3---3---3---3-----3---3---3---3---| x6

(gt1+2 dist)
3|-5---------|
4|-3---1-1-1-|
5|-3---1-1-1-|
6|-3---1-1-1-| x3
       . . .
     
     (small pause)

CHORUS (gt1+2 dist)x2
3|-------6-----------|
4|-3-3h5-6---6---8\1-|
5|-3-3h5-4---6---8\1-|
6|-3-3h5-----6---8\1-|

VERSE
CHORUS x2
BRIDGE (gt1+2 dist)      --
4|-3--3333-3--3333h4-|     |
5|-3--3333-3--3333h4-|     |
6|-3--3333-3--3333h4-| x3  |
       ..      ..          |
                           | x2
4|-3--3333-3--3333-444-|   |
5|-3--3333-3--3333-444-|   |
6|-3--3333-3--3333-444-|   |
       ..      ..  ...     |
                         --
4|-1h3-3m-|
5|-1h3-3m-|
6|-1h3-3m-|x3

4|-1-3-3-3--1-3-3-3--1-4-4-|
5|-1-3-3-3--1-3-3-3--1-4-4-|
6|-1-3-3-3--1-3-3-3--1-4-4-|

4|-3--3333-3--3333h4-|
5|-3--3333-3--3333h4-|
6|-3--3333-3--3333h4-| x4
       ..      ..

(gt2 dist)
4|-3-          -|
5|-3 (fade out) |
6|-3-          -|

INERLUDE (gt1 clean)
2|-5---5---5---5---5---5-6---6---6---6---6-|
3|---3---3---3---3---3-----3---3---3---3---| x6

(gt1+2 dist)
3|-5---------|
4|-3---1-1-1-|
5|-3---1-1-1-|
6|-3---1-1-1-| x3
       . . .

CHORUS (gt1+2 dist)x4
3|-------6-----------|
4|-3-3h5-6---6---8\1-|
5|-3-3h5-4---6---8\1-|
6|-3-3h5-----6---8\1-|

OUTRO (gt1+2 dist)
4|-3--3333-3--3333h4-|
5|-3--3333-3--3333h4-|
6|-3--3333-3--3333h4-| x4
       ..      ..

4|-1h3-333-1h3-333--1-4-|
5|-1h3-333-1h3-333--1-4-|
6|-1h3-333-1h3-333--1-4-| x4
        ..      ..     

4|-3--3333-3--3333h4-|
5|-3--3333-3--3333h4-|
6|-3--3333-3--3333h4-| x4
       ..      ..

4|-3h4-3h4-3h4-3h4-3m-|
5|-3h4-3h4-3h4-3h4-3m-|
6|-3h4-3h4-3h4-3h4-3m-|

---------------------------
This file passed through:
       Absolute Tabs
   http://www.tabs.co.za
---------------------------